IndyTab Logo

BETA VERSION - 321 TABS DISPONIBILI

Cerca una tablatura nel nostro archivio:

Gruppo Canzone


Elenco dei gruppi presenti su IndyTab
Lista di tutte le tablature di IndyTab
DISCLAIMER
Questa tablatura rappresenta l'interpretazione della canzone da parte dell'autore. Può essere usata per scopi di studio, insegnamento e ricerca.

La tab è liberamente riproducibile in forum, blog, siti web (ad eccezione degli archivi di tablature online) e stampabile. Non è obbligatorio ma molto gradito citare la fonte (cioè IndyTab), meglio con un link di rimando al nostro sito.
ACCORDATORE
Per accordare la tua chitarra puoi usare il nostro accordatore online
TAB REQUEST
Stai cercando una tablatura? Suggeriscila compilando il modulo sottostante!

Gruppo
Titolo
Tua Mail

(la tua mail verrà usata per ricontattarti quando la tablatura sarà online)
DELLO STESSO GRUPPO

Punkreas // Sotto Esame

Tablatura tratta dall'album: Pelle

(clicca qui per la legenda)

(clicca qui per il video)

     Fm   C#   D#     F   C#  D#  G   G#  F(I) G(X)
e|---8----4----6---|-------------------------------|
B|---9----6----8---|-------------------------------|
G|---10---6----8---|--10--6---8----------------12--|
D|-- 10---6----8---|--10--6---8---5---6----3---12--|
A|--(8)--(4)--(6)--|--8---4---6---5---6----3---10--|
E|-----------------|--------------3---4----1-------|
     accordi ska             accordi punk


--------------------------------------------------------------------------

NOTE:

-Nelle versioni live i Punkreas la suonano mezzo tono sotto.
- * : ripetere più volte pulloff e hammeron.



INTRO: (ACCORDI SKA)

      *                     *
e|-----------------------------------------------------|
B|--9p8h9------------------9p8h9--11---11-11--9-8------|
G|--------10----10-8----8------------------------------|
D|-----------------------------------------------------|
A|-----------------------------------------------------|
E|-----------------------------------------------------|
    Fm    C#       D#      Fm     C#          D#             


      *                         *
e|-----------------------------------------------------|
B|--9p8h9-----9---------8-----9p8h9--11---11-11--9-8---|
G|---------10---10-10-8-----8--------------------------|
D|-----------------------------------------------------|
A|-----------------------------------------------------|
E|-----------------------------------------------------|
    Fm     C#         D#      Fm     C#          D#        



STROFA 1:

Chitarra 1: Ritmica ska
Chitarra 2: Fraseggio con distorsione Wha
e|-------------------------------------------------------|
B|-------------------------------------------------------|
G|-------------------------------------------------------|
D|-------------------------------------------------------|
A|---------------3-4---------------------3-4-4-4---------|
E|--1--0-1---1-4------XX----1--0-1---1-4----------XX-----|


Fm  C#   D#          Fm 
    Esaminati da una vita

           C#        D#       Fm
che inizia con una insolita perizia

                  C#           D#
per vedere se sei uomo o donna sano

Fm                  C#           D#
fisicamente idoneo, praticamente umano



STACCO 1: ripetere INTRO



STROFA 2:

Chitarra 1: Ritmica ska
Chitarra 2: Fraseggio con distorsione Wha

Fm                     C#          D#
Medie superiori lunghi anni all'università

Fm                     C#             D#
per studiare il tuo quoziente intellettivo

Fm              C#           D#
e stipulare una sorta di classifica

    Fm                           C#         D#
che renda il più possibile al settore produttivo



RITORNELLO: (ACCORDI PUNK)

F(I)   C#      D#
       Che posizione hai?

F(I)
qual è il tuo numero?

C#               D#
sei in discesa o sei in salita?

F(p.m.)      (F)(D#) C#          D#
la graduatoria       non è altro che

F(p.m.)      (F)(D#) C#       D#
una sparatoria       alle tue spalle



STACCO 2: (ACCORDI SKA)

      *                 |-------- (p.m.) ----------|
e|-----------------------------------------------------|
B|--9p8h9----------------------9-8-----9-8--------9-8\-|
G|-----------------------10-10------10------10-10------|
D|-----------------------------------------------------|
A|-----------------------------------------------------|
E|-----------------------------------------------------|
    Fm C# D# Fm C# D#    Fm                 C#       D# 

e|----------------------------------|
B|-----8h9p8h9-8---8-8h9p8h9--8-----|
G|----------------------------------|
D|----------------------------------|
A|----------------------------------|
E|----------------------------------|
    Fm         C#       D#



STROFA 3:

Chitarra 1: Ritmica ska
Chitarra 2: Fraseggio con distorsione Wha

Fm                     C#          D#
Medie superiori lunghi anni all'università

Fm                     C#             D#
per studiare il tuo quoziente intellettivo

Fm              C#           D#
e stipulare una sorta di classifica

    Fm                           C#         D#
che renda il più possibile al settore produttivo



RITORNELLO: (ACCORDI PUNK)

F(I)   C#      D#
       Che posizione hai?

F(I)
qual è il tuo numero?

C#               D#
sei in discesa o sei in salita?

F(p.m.)      (F)(D#) C#          D#
la graduatoria       non è altro che

F(p.m.)       (F)(D#)  C#  D# (D#)(G(X))
una sparatoria e tu lo sai!

(G#)    (G)    F(I)         C#          D#
Non puoi dichiarare di aver vinto la partita

e|----(ripetere più volte le ottave)----|
B|--------------------------------------|
G|------------------------6--8--10--12--|
D|--------------------------------------|
A|------------------------4--6--8---10--|
E|--------------------------------------|
   [G#][G#](G)  F(I)      C#    D#
    rimandato a vita io sarò

(G#) (G)        F(I)         C#           D#
perderai il tuo tempo per cercare un risultato

e|----(ripetere più volte le ottave)----|
B|--------------------------------------|
G|------------------------6--8--10--12--|
D|--------------------------------------|
A|------------------------4--6--8---10--|
E|--------------------------------------|
   [G#][G#](G)  F(I)      C#    D#
    sempre rimandato io sarò 



RITORNELLO: 

F(I)  (ACCORDO PUNK)

e|----------------------|
B|----------------------|
G|----------------------|
D|----3-------5---------|
A|--4---4---6---6-------|
E|----------------------|
    C#      D#         (ACCORDI SKA)
    Che posizione hai?


F(I)  (ACCORDO PUNK)

e|-------------------------|
B|-------------------------|
G|-------------------------|
D|----3-------------5-5----|
A|--4---4---------6--------|
E|-------------------------|
    C#            D#      (ACCORDI SKA)
    Qual è il tuo numero?


F(I)  (ACCORDO PUNK)

e|-------------------------------|
B|-------------------------------|
G|-------------------------------|
D|----3----------------5---------|
A|--4---4------------6---6-------|
E|-------------------------------|
    C#               D#         (ACCORDI SKA)
    sei in discesa o sei in salita?      


(ACCORDI PUNK)
                                
F(I)           C#         D#
la graduatoria è una sparatoria!

(G#)    (G)    F(I)         C#          D#
Non puoi dichiarare di aver vinto la partita

e|----(ripetere più volte le ottave)----|
B|--------------------------------------|
G|------------------------6--8--10--12--|
D|--------------------------------------|
A|------------------------4--6--8---10--|
E|--------------------------------------|
   [G#][G#](G)  F(I)      C#    D#
    rimandato a vita io sarò

(G#) (G)        F(I)         C#           D#
perderai il tuo tempo per cercare un risultato

e|----(ripetere più volte le ottave)------------------------------|
B|----------------------------------------------------------------|
G|------------------------6--8--10--12--12/13--15-----13--12--10--|
D|----------------------------------------------------------------|
A|------------------------4--6--8---10--10/11--13-----11--10--8---|
E|----------------------------------------------------------------|
  [G#][G#](G)  F(I)      C#                   D#     (G#)(G) F(I)..
    sempre rimandato io sarò 
VIDEO

Se il video non dovesse essere più disponibile scrivi a indytab@googlemail.com. Grazie!
COMMENTA QUESTA TABLATURA
Devi avere JavaScript attivato per poter commentare! (misura antispam)