IndyTab Logo

BETA VERSION - 321 TABS DISPONIBILI

Cerca una tablatura nel nostro archivio:

Gruppo Canzone


Elenco dei gruppi presenti su IndyTab
Lista di tutte le tablature di IndyTab
DISCLAIMER
Questa tablatura rappresenta l'interpretazione della canzone da parte dell'autore. Può essere usata per scopi di studio, insegnamento e ricerca.

La tab è liberamente riproducibile in forum, blog, siti web (ad eccezione degli archivi di tablature online) e stampabile. Non è obbligatorio ma molto gradito citare la fonte (cioè IndyTab), meglio con un link di rimando al nostro sito.
ACCORDATORE
Per accordare la tua chitarra puoi usare il nostro accordatore online
TAB REQUEST
Stai cercando una tablatura? Suggeriscila compilando il modulo sottostante!

Gruppo
Titolo
Tua Mail

(la tua mail verrà usata per ricontattarti quando la tablatura sarà online)
DELLO STESSO GRUPPO

Punkreas // Ultima Notte

Tablatura tratta dall'album: Elettrodomestico

(clicca qui per la legenda)

(clicca qui per il video)

     C     Em   Am   F     G   G#m   B       C    G    F   F(VIII)  E 
e|---8-----7----5----1----3----4-----7---|------------------------------|
B|---8-----8----5----1----3----4-----7---|------------------------------|
G|---9-----9----5----2----4----4-----8---|---5---------------10-----9---|
D|--(10)--(9)--(7)--(3)--(5)--(6)---(9)--|---5----5----3-----10-----9---|
A|--(10)--(7)--(7)--(3)--(5)--(6)---(9)--|---3----5----3-----8------7---|
E|--(8)---(7)--(5)--(1)--(3)--(4)---(7)--|--------3----1----------------|

       Accordi parte ska                  Accordi distorti

--------------------------------------------------------------------------


INTRO:
(ritmo ska)

C  Em  Am  F  G  

B/C  Em  G#m/Am  F  G  


RIFF 1:

e|--------------------------------------------------------------|
B|--------------5-5-5-5-5-5-------5-6-6--6---5-6----------------|
G|---5--5-5-7-5----------------7-----------------5---7----------|
D|--------------------------------------------------------------|
A|--------------------------------------------------------------|
E|--------------------------------------------------------------|
     C          Em                  Am           F   G  

e|--------------------------------------------------------------|
B|--------------------------------------------------------------|
G|---5--5-5-7-5-4------4-5-5--5--------4---5----7---------------|
D|-------------------7--------------7------3----5---------------|
A|--------------------------------------------------------------|
E|--------------------------------------------------------------|
     C          Em        Am               F    G  

e|--------------------------------------------------------------|
B|--------------5-5-5-5-5-5-------5-6-6--6---5-6----------------|
G|---5--5-5-7-5----------------7-----------------5---7----------|
D|--------------------------------------------------------------|
A|--------------------------------------------------------------|
E|--------------------------------------------------------------|
     C          Em                  Am           F   G  

e|--------------------------------------------------------------|
B|--------------------------------------------------------------|
G|---5--5-5-7-5-4------4-5-5--5--------4---5----7---------------|
D|-------------------7--------------7---------------------------|
A|--------------------------------------------------------------|
E|--------------------------------------------------------------|
     C          Em        Am               F    G  


STROFA 1:
(ritmo ska)

C                   Em 
Ultima notte per la mia televisione,

Am               F          G   
design italico,tedesca precisione,

C                    Em 
lo schermo piatto ed il supporto a stelo,

Am                  F          G   
ultima notte per un mondo parallelo

C            Em          Am 
che fra poco non parlerà più

  F          G     C       Em              Am    
e non darà segnali di vita con la testa in giù

     F            G    
ed i piedi per pensare.


RIFF 2:

e|--------------------------------------------------------------|
B|---/8--8-8---6-6--5----/8--8-8---6-6--5-----------------------|
G|----------------------------------------5----/7-7-7-5-7-------|
D|--------------------------------------------------------------|
A|--------------------------------------------------------------|
E|--------------------------------------------------------------|
      C                   Em              Am    F 
     

e|--------------------------------------------------------------|
B|---/8--8-8---6-6--5----/8--8-8---6-6--5-5-----8-6-5-6-5-------|
G|--------------------------------------------------------------|
D|--------------------------------------------------------------|
A|--------------------------------------------------------------|
E|--------------------------------------------------------------|
      C                   Em              Am    F     G  

STROFA 2:
(ritmo ska)

C                    Em  
Ultimi sforzi per captare la frequenza,

Am                       F             G  
ma già l'immagine sta andando in dissolvenza

C                   Em 
come una stella sul punto di morire,

Am                    F         G  
implode al centro del mio televisore

C             Em            Am     F                 G  
manda una scintilla e se ne va, lo schermo è già oscurato,

C          Em          Am     F         G   
senza più TG o pubblicità, mi sento liberato.


PONTE:
(accordi distorti)

C(p.m.)                               F(p.m.)
Io non gioco più, e lo spettacolo è finito

       G(p.m.)       C(p.m.) 
perchè io non voglio più prendere parte

         F(p.m.)      G(p.m.)
a questo rito che non mi diverte.

(oltre agli accordi in palm muted, una chitarra suona sempre sul C 
 alcune pennate con ritmo in levare)


RIFF 3:

e|--------------------------------------------------------------|
B|----------------5------5------------5-6-5---------------------|
G|---5-5---5--7-5------7---5--5-5---7-------7-5-----------------|
D|--------------------------------------------------------------|
A|--------------------------------------------------------------|
E|--------------------------------------------------------------|
     C            Em      Am          F     G    

e|--------------------------------------------------------------|
B|--------------------------------------------------------------|
G|---/5-5--5-7-5-4-------4-5-5-5------4----5-----7--------------|
D|---------------------7------------7------3-----5--------------|
A|--------------------------------------------------------------|
E|--------------------------------------------------------------|
     C           Em        Am              F     G    

e|--------------------------------------------------------------|
B|----------------5------5-6--6-6-----5-6-----------------------|
G|---5-5---5--7-5------7-------------------5---7----------------|
D|--------------------------------------------------------------|
A|--------------------------------------------------------------|
E|--------------------------------------------------------------|
     C            Em       Am              F   G    

e|--------------------------------------------------------------|
B|--------------------------------------------------------------|
G|---/5-5--5-7-5-4-------4-5-5-5------4----5-----7--------------|
D|---------------------7------------7---------------------------|
A|--------------------------------------------------------------|
E|--------------------------------------------------------------|
     C           Em        Am              F     G  



STROFA 3:
(ritmo ska)

C                   Em 
Prendo la tele e la butto dal balcone

Am                    F          G  
e solo allora mi si accende la ragione

C            Em 
narcotizzato dalle trasmissioni

Am                  F             G    
ho regalato il vero mondo a dei padroni

C                 Em          Am 
che hanno in odio la mia libertà

  F           G     C               Em        Am  
e voglion solamente schiavi senza alcuna dignità

      F          G   
ed un pubblico demente.


PONTE: come sopra


RITORNELLO:
(accordi distorti)

C        G  
E mentre seguo il suo volo,

E                 F(VIII) 
anche il video sembra contento,

C         G              E  
ha capito che si infrangerà

        F(VIII)  
sul pavimento in strada

C        G  
e dentro tutti i buffoni,

E              F(VIII) 
pagati per truffar la gente,

C           G            E        F(VIII) 
strillano sapendo che di loro non resterà più niente


Nella seconda parte del ritornello c'è questo arpeggio con chitarra 
distorta

e|--------------------------------------------------------------|
B|---1-1-------------0-0----------------------------------------|
G|-------0-0-------------0-0--------0-0-------------------------|
D|-----------2-2-------------0-0--------2-2---------------------|
A|------------------------------------------2-2-----------------|
E|--------------------------------------------------------------|
     C               G              Em 


ASSOLO:

e|-------------------------------------5------------------------|
B|-----------------5-----5-----------5---8-5--------------------|
G|----5-5--5---7-5-----7---5-5-5---7---------7------------------|
D|--------------------------------------------------------------|
A|--------------------------------------------------------------|
E|--------------------------------------------------------------|
      C            Em      Am         F    G  

e|--------------------------5-5--5------5--7h8-5----------------|
B|------------------------5-----------8----------8-5------------|
G|----5-5--5---7-5-4----7---------------------------------------|
D|--------------------------------------------------------------|
A|--------------------------------------------------------------|
E|--------------------------------------------------------------|
      C            Em       Am             F     G  

   |---p.m.---|
e|--------------------------------------------------------------|
B|-----------------5-6-5---5-----6-5---6-5--------5-----6--5----|
G|-----------4-5-7-------7-----------7-----7--5------7----------|
D|---------7----------------------------------------------------|
A|-----5-7------------------------------------------------------|
E|---8----------------------------------------------------------|
     C             Em            Am               F     G  

   |---p.m.---|
e|--------------------------------5------5----------------------|
B|----------------------------------8-5----8-5------5----8-6----|
G|-----------4-5-7--4-5-4---4------------------7------7---------|
D|---------7--------------7-------------------------------------|
A|-----5-7------------------------------------------------------|
E|---8----------------------------------------------------------|
     C              Em            Am                F    G   


PONTE: come sopra


RITORNELLO: come sopra


OUTRO:

e|--------------------------------------------------------------|
B|--------------5-----------------------------------------------|
G|---5--5-5-7-5-------------------------------------------------|
D|--------------------------------------------------------------|
A|--------------------------------------------------------------|
E|--------------------------------------------------------------|
     C..                             [C][C]
VIDEO

Se il video non dovesse essere più disponibile scrivi a indytab@googlemail.com. Grazie!
COMMENTA QUESTA TABLATURA
Devi avere JavaScript attivato per poter commentare! (misura antispam)