IndyTab Logo

BETA VERSION - 321 TABS DISPONIBILI

Cerca una tablatura nel nostro archivio:

Gruppo Canzone


Elenco dei gruppi presenti su IndyTab
Lista di tutte le tablature di IndyTab
DISCLAIMER
Questa tablatura rappresenta l'interpretazione della canzone da parte dell'autore. Può essere usata per scopi di studio, insegnamento e ricerca.

La tab è liberamente riproducibile in forum, blog, siti web (ad eccezione degli archivi di tablature online) e stampabile. Non è obbligatorio ma molto gradito citare la fonte (cioè IndyTab), meglio con un link di rimando al nostro sito.
ACCORDATORE
Per accordare la tua chitarra puoi usare il nostro accordatore online
TAB REQUEST
Stai cercando una tablatura? Suggeriscila compilando il modulo sottostante!

Gruppo
Titolo
Tua Mail

(la tua mail verrà usata per ricontattarti quando la tablatura sarà online)
DELLO STESSO GRUPPO

Porno Riviste // Cinismo

Tablatura tratta dall'album: Codice A Sbarre

(clicca qui per la legenda)

(clicca qui per il video)

     A   E   D   B   F#   G#  E(0)
e|---------------------------------|
B|---------------------------------|
G|-------9---7---4-----------------|
D|---7---9---7---4---4----6----2---|
A|---7---7---5---2---4----6----2---|
E|---5---------------2----4----0---|


--------------------------------------------------------------------------

RIFF:
(ripetere più volte ogni nota)
e|-------------------|---------------------|------------|-------------|
B|-------------------|---------------------|------------|-------------|
G|------9----7----9--|------------7--9-----|------------|--7--9-------|
D|--7----------------|--7----9----------7--|--7----9----|--------7----|
A|-------------------|---------------------|------------|-------------|
E|-------------------|---------------------|------------|-------------|
        RIFF1                 RIFF2            RIFF3        RIFF4



INTRO:

A..                      E..               D..     E..       A..    
Eccoti una sfida che non finisce mai, sono stanco, io non lo so

A..                     E..                        D..     E..        A..
tutto l’ho già odiato e non capisco chi vuoi, sono stanco, non voglio più



PONTE:

e|----------------------4---4h5p4-------4---------------------------|
B|--------------------5-----------5-------5-------------------------|
G|------------------6---------------6-------6-4-4-4-4-4-4-----------|
D|--6---6---6---7-7-------------------------------------------------|
A|------------------------------------------------------------------|
E|------------------------------------------------------------------|
   [G#][G#][G#] A             D         F#    E(0)

e|----------------------4----4h5p4-------7---7-7-7-7--5-4h5p4-------|
B|--------------------5------------5--------------------------5-----|
G|------------------6----------------6--------------------------6-4-|
D|--6---6---6---7-7-------------------------------------------------|
A|------------------------------------------------------------------|
E|------------------------------------------------------------------|
   [G#][G#][G#] A              D         F#        E(0)     [G#][G#][G#]
 
e|---------4---4h5p4-------4---------------------|
B|-------5-----------5-------5-------------------|
G|-----6---------------6-------6-4-4-4-4-4-4-----|
D|---7-------------------------------------------|
A|-----------------------------------------------|
E|-----------------------------------------------|
     A           D         F#    E(0)

e|--------------------4----4h5p4-------7~~-------|
B|------------------5------------5----(7)~-------|
G|----------------6----------------6-------------|
D|--6---6---6---7--------------------------------|
A|-----------------------------------------------|
E|-----------------------------------------------|
   [G#][G#][G#] A            D         F#     [E][E] [E][E] [E][E] [E][E]



STROFA 1:

 (P.M. CONTINUO)

A                                E    
Chiuso in un consiglio esiste il limite a tutto

     D                     E
come sensazione tipica che sale di scatto

   A                                   E
mi spingo un po’ più in alto e do un’occhiata sul fondo

     D                          E
vedo quello che comanda nel mio piccolo mondo


 (PALM MUTED ACCENTUANDO PRIMA PENNATA)

    A                       E
Succhiano le code e gli spettacoli in banca

       D                        E
non ho sogni di comando e tutto questo mi stanca

  A                    E
insegne luminose sulla via del successo

     D                            E               A..
o un colloquio al C.P.S. che alla fine è lo stesso



RITORNELLO:

        [A][A][A][A][A]         [B][B][B][B][B]
Mi dici sì,              mi dici no

         [D][D]         [E][E]     A\
ma non aggiungi molto a quello che ho

         [A][A][A][A][A]                [B][B][B][B][B]
dici che fai,              dici che vai

        [D][D]          [E][E]     A..
ma non aggiungi molto a quello che sei



STROFA 2:

A+RIFF1                          E
Questa è la mia gabbia ed è affollata di gente

        D                        E
con quintali di concetti che non dicono niente

     A+RIFF1                   E
si divide ciò che vedo solo in buoni e cattivi

        D                           E
e tante volte non distinguo più i defunti dai vivi


 ( DA QUÌ PALM MUTED ACCENTUANDO ULTIMA PENNATA)

    A                         E
Poi tutto è calcolato su un bisogno comune

      D                       E
ma se poi non è comune chi mi dà ciò che voglio

       A                               E
non mi piace il mio sistema, il tuo sistema è una fogna

      D                            E
la bottiglia è mezza piena o mezza vuota di sbocco

      A...                        E...
In compenso non invecchio e non accumulo un cazzo

           D(p.m)                           [E]    E..    [E]    E..
c'è qualcuno che mi insegue, qualche cosa mi schiaccia, mi schiaccia!



RITORNELLO:

        [A][A][A][A][A]         [B][B][B][B][B]
Mi dici sì,              mi dici no

         [D][D]         [E][E]     A\
ma non aggiungi molto a quello che ho

         [A][A][A][A][A]                [B][B][B][B][B]
dici che fai,              dici che vai

        [D][D]          [E][E]     A..
ma non aggiungi molto a quello che sei

         A+RIFF2    B
mi dici sì, mi dici no

        D                E         A
ma non aggiungi molto a quello che ho

          A+RIFF3      B     [D][D] [E][E]
dici che fai, dici che vai



PONTE:

e|--------------------4---4h5p4-------4-----------------------|
B|------------------5-----------5-------5---------------------|
G|----------------6---------------6-------6-4-4-4-4-4-4-------|
D|--6---6---6---7---------------------------------------------|
A|------------------------------------------------------------|
E|------------------------------------------------------------|
   [G#][G#][G#] A             D         F#    E(0)

e|--------------------4----4h5p4-------7---7-7-7-7--5-4h5p4-----------|
B|------------------5------------5--------------------------5---------|
G|----------------6----------------6--------------------------6-4-----|
D|--6---6---6---7-------------------------------------------------7\--|
A|--------------------------------------------------------------------|
E|--------------------------------------------------------------------|
   [G#][G#][G#] A            D         F#        E(0)    



STROFA 3:

      A...                       E...
In compenso non invecchio e non accumulo un cazzo

           D(p.m)                            [E]   E..     [E]    E..
c'è qualcuno che mi insegue, qualche cosa mi schiaccia,  mi schiaccia!



RITORNELLO:

        [A][A][A][A][A]         [B][B][B][B][B]
Mi dici sì,              mi dici no

         [D][D]         [E][E]     A\
ma non aggiungi molto a quello che ho

         [A][A][A][A][A]                [B][B][B][B][B]
dici che fai,              dici che vai

        [D][D]          [E][E]     A..
ma non aggiungi molto a quello che sei

         A+RIFF2    B
mi dici sì, mi dici no

        D                E         A
ma non aggiungi molto a quello che ho

          A+RIFF2      B
dici che fai, dici che vai

         D                E         A
ma non aggiungi molto a quello che sei

          D+RIFF4         E          A
no, non aggiungi molto a quello che dai

         [D][D]         [E][E] [G#][A]
ma non aggiungi molto a quello che ho.
VIDEO

Se il video non dovesse essere più disponibile scrivi a indytab@googlemail.com. Grazie!
COMMENTA QUESTA TABLATURA
Devi avere JavaScript attivato per poter commentare! (misura antispam)