IndyTab Logo

BETA VERSION - 321 TABS DISPONIBILI

Cerca una tablatura nel nostro archivio:

Gruppo Canzone


Elenco dei gruppi presenti su IndyTab
Lista di tutte le tablature di IndyTab
DISCLAIMER
Questa tablatura rappresenta l'interpretazione della canzone da parte dell'autore. Può essere usata per scopi di studio, insegnamento e ricerca.

La tab è liberamente riproducibile in forum, blog, siti web (ad eccezione degli archivi di tablature online) e stampabile. Non è obbligatorio ma molto gradito citare la fonte (cioè IndyTab), meglio con un link di rimando al nostro sito.
ACCORDATORE
Per accordare la tua chitarra puoi usare il nostro accordatore online
TAB REQUEST
Stai cercando una tablatura? Suggeriscila compilando il modulo sottostante!

Gruppo
Titolo
Tua Mail

(la tua mail verrà usata per ricontattarti quando la tablatura sarà online)
DELLO STESSO GRUPPO

Duracel // Nonostante Te

Tablatura tratta dall'album: Domani È Come Oggi

(clicca qui per la legenda)

(clicca qui per il video)

    A  D  B  E  G# C#
e|-----------------------|
B|-----------------------|
G|-----7-----9-----6-----|
D|--7--7--9--9--6--6-----|
A|--7--5--9--7--6--4-----|
E|--5-----7-----4--------|


--------------------------------------------------------------------------


STROFA:

                            XXX
Genny dice "Se vuoi i soldi

       A
cambia look

                         D
fai la barba, i vestiti,

        A
fate un book"

B           E
  ma non pretendo niente

A           D
  non mi importa

B                       E  [E][C#] 
di avere quello che non ho



RITORNELLO:

   D            A
Mi basta la mia favola

   E           A     C#
il mio cd dei Queers

   D               A              E
cantare con gli strappi sui blue jeans

             D            E
comportarmi come piace a me

              A
e nonostante te



PONTE:
A (G#) B E
(A)(D) A (G#) B E
(A) (D) (A) (D) E
(D)(A) E



STROFA:

[A]
Genny dice "Siete bravi

          A
ma squallidi

                               D
con le occhiaie, con quei visi

     A
pallidi"

B            E
ma io non pretendo niente

A        D
non mi importa

B                       E  [E][C#]
di avere quello che non ho



RITORNELLO:


   D            A
Mi basta la mia favola

   E           A     C#
il mio cd dei Queers

   D               A              E
cantare con gli strappi sui blue jeans

             D            E
comportarmi come piace a me

              A
e nonostante te



OUTRO:
e|--------------------------------------------------|
B|--------------------------------------------------|
G|-----------6-----------7-6------------------------|
D|-7-----7-9---7-----7-9-----7-9--------------------|x5
A|---7-7-----------7--------------------------------|
E|--------------------------------------------------|
   A     E     D
 e nonostante te

e|--------------------------------------------------|
B|--------------------------------------------------|
G|-----------6-------7-6---7-6----7-6---------------|
D|-7-----7-9-------7--------------------7~~---------|
A|---7-7--------------------------------------------|
E|--------------------------------------------------|
   A     E           D C#  D C#   D C#  A..
 e nonostante te
VIDEO

Se il video non dovesse essere più disponibile scrivi a indytab@googlemail.com. Grazie!
COMMENTA QUESTA TABLATURA
Devi avere JavaScript attivato per poter commentare! (misura antispam)