IndyTab Logo

BETA VERSION - 321 TABS DISPONIBILI

Cerca una tablatura nel nostro archivio:

Gruppo Canzone


Elenco dei gruppi presenti su IndyTab
Lista di tutte le tablature di IndyTab
DISCLAIMER
Questa tablatura rappresenta l'interpretazione della canzone da parte dell'autore. Può essere usata per scopi di studio, insegnamento e ricerca.

La tab è liberamente riproducibile in forum, blog, siti web (ad eccezione degli archivi di tablature online) e stampabile. Non è obbligatorio ma molto gradito citare la fonte (cioè IndyTab), meglio con un link di rimando al nostro sito.
ACCORDATORE
Per accordare la tua chitarra puoi usare il nostro accordatore online
TAB REQUEST
Stai cercando una tablatura? Suggeriscila compilando il modulo sottostante!

Gruppo
Titolo
Tua Mail

(la tua mail verrà usata per ricontattarti quando la tablatura sarà online)
DELLO STESSO GRUPPO

Duracel // Decido Io

Tablatura tratta dall'album: Decido Io

(clicca qui per la legenda)

(clicca qui per il video)

    D   G   A   C#
e|---------------------|
B|---------------------|
G|--7-----------6------|
D|--7---5---7---6------|
A|--5---5---7---4------|
E|------3---5----------|


--------------------------------------------------------------------------


FILL1:
e|---------------------|
B|---------------------|
G|--7-6----------------|
D|------7-7-9-7~-------|
A|---------------------|
E|---------------------|



INTRO:
(accordi aperti)
C#/D x4



STROFA:
(palm muted)

D                                G
Quando mi alzo e bevo il mio caffè

                          D
cerco i rimpianti dentro me

                          G + FILL1
li trovo e poi li butto via

D                        G
ho scelto la musica, la mia,

                         D
cambiare idea mai e poi mai

                        G + FILL1
viver di sogni e di poesia



RITORNELLO:
(accordi aperti)

G        A            D     (G)(A)
E quando poi cala la notte,

G           A             D  (G)(A)
mi trova ancora fiero di me!

G           D       A    G
non ho un futuro o forse sì

            D     A      G
perso fra "come, cosa, chi"?

               A
ma il tempo è mio,

       D   [D]
decido io!



SOLO:
(l'accompagnamento è fatto solo dal basso,
 che suona il D nell'ottava più grave)
e|---------------------------------------|
B|-10p7---------------------8-7----------|
G|------9-9--7-9--7-------7-----7-9~-----|
D|------------------7---9----------------|
A|---------------------------------------|
E|---------------------------------------|
            (D)   G         D     A

e|---------------------------------------|
B|-10p7---------------------8-7----------|
G|------9-9--7-9--7-------7-----7-9~-----| x3
D|------------------7---9----------------|
A|---------------------------------------|
E|---------------------------------------|
   (D)    (A)     G         D     A

e|--------------------|
B|-10p7---------------|
G|------9-9--7-9------|
D|--------------------|
A|--------------------|
E|--------------------|
   (D)    (A)



STROFA:
(palm muted)

D                              G
Quando piango in cerca di perchè

                            D
pensando a quello che non c'è,

                         G + FILL1
sputo per terra e vado via

D                           G
rassegnato un poco o forse no,

                       D
da schiavo della fantasia

                     G + FILL1
valuto cose che non so



RITORNELLO:
(accordi aperti)

G             A           D     (G)(A)
Ma quando il pubblico là sotto

G          A               D    (G)(A)
si scalda sui tre accordi miei,

G            D      A          G
non rischio di guardar più in là

G          D    A      G
della mia piccola realtà

           A
del tempo mio

       D   [D]
decido io!



SOLO/OUTRO:
e|---------------------------------------|
B|-10p7---------------------8-7----------|
G|------9-9--7-9--7-------7-----7-9~-----|
D|------------------7---9----------------|
A|---------------------------------------|
E|---------------------------------------|
            (D)   G         D     A

e|---------------------------------------|
B|-10p7---------------------8-7----------|
G|------9-9--7-9--7-------7-----7-9~-----| x3
D|------------------7---9----------------|
A|---------------------------------------|
E|---------------------------------------|
   (D)    (A)     G         D     A

e|--------------------|
B|-10p7---------------|
G|------9-9--7-9------|
D|--------------------|
A|--------------------|
E|--------------------|
   (D)    (A)

e|------------------------------------------|
B|----------8-7---7----------8-7---7--------|
G|--7---7-9-----9----7---7-9-----9----------| x3
D|----7----------------7--------------------|
A|------------------------------------------|
E|------------------------------------------|
    D                G       A
                               Decido io!

e|-----------------------------------------------|
B|----------8-7---7----------8-7---7-------------|
G|--7---7-9-----9----7---7-9-----9----7~~~-------|
D|----7----------------7-------------------------|
A|-----------------------------------------------|
E|-----------------------------------------------|
    D                G       A        D..    [D]
                               Decido io!
VIDEO

Se il video non dovesse essere più disponibile scrivi a indytab@googlemail.com. Grazie!
COMMENTA QUESTA TABLATURA
Devi avere JavaScript attivato per poter commentare! (misura antispam)