IndyTab Logo

BETA VERSION - 321 TABS DISPONIBILI

Cerca una tablatura nel nostro archivio:

Gruppo Canzone


Elenco dei gruppi presenti su IndyTab
Lista di tutte le tablature di IndyTab
DISCLAIMER
Questa tablatura rappresenta l'interpretazione della canzone da parte dell'autore. Può essere usata per scopi di studio, insegnamento e ricerca.

La tab è liberamente riproducibile in forum, blog, siti web (ad eccezione degli archivi di tablature online) e stampabile. Non è obbligatorio ma molto gradito citare la fonte (cioè IndyTab), meglio con un link di rimando al nostro sito.
ACCORDATORE
Per accordare la tua chitarra puoi usare il nostro accordatore online
TAB REQUEST
Stai cercando una tablatura? Suggeriscila compilando il modulo sottostante!

Gruppo
Titolo
Tua Mail

(la tua mail verrà usata per ricontattarti quando la tablatura sarà online)
DELLO STESSO GRUPPO

Duracel // Enormi

Tablatura tratta dall'album: Decido Io

(clicca qui per la legenda)

(clicca qui per il video)

    D# G# A# C
e|----------------|
B|----------------|
G|--8-------------|
D|--8--6--8--10---|
A|--6--6--8--10---|
E|-----4--6--8----|


--------------------------------------------------------------------------


INTRO:
D# G# A# (D#)(A#)   x4



STROFA:

D#                      G#
Via la chitarra accendo cicche e tv

       A#               (D#) (A#)
questa sera non passa più

D#                  G#
quando di colpo telefona lei

     A#           (D#) (A#)
e mi chiede "dove sei?"

D#                  G#
Prendo la macchina capito là

       A#                 (D#) (A#)
Come stai? Come vai? Come va?

D#                      G#
Un lungo sguardo stile film

       A#               (D#) (A#)
m'avvicino e ti apro i jeans



RITORNELLO:

G#          A#
WO OH OH CIUA

D#          C
Per fortuna che ci sei

G#       A#
WO OH CIUA

D#             C
Qui spariscono anche i guai

G#              A#
finchè il cuore non la smette

e|-----------------------------------|
B|-----------------------------------|
G|---------------------------10--8---|
D|-----------------------------------|
A|-----------------------------------|
E|-----------------------------------|
   G#            [A#] [A#]
   fra le mani e le   tue...



STACCO:
D# G# A# (D#)(A#)   x2



STROFA:
(palm muted)

D#                 G#
Io la chitarra ho suonato per te

        A#                      (D#) (A#)(accordi aperti)
fra due canne, una cicca ed un the

D#            G#
sarà l'erba o la primavera

       A#               (D#) (A#)(accordi aperti)
siamo strani questa sera

(da qui power-accordi normali)

D#
le prendo il braccio

     G#               A#              (D#) (A#)
ha capito di già come tutto si evolverà

D#                G#
fa un sorriso, lo so che ha capito

         A#              (D#) (A#)
tocco il cielo con un dito



RITORNELLO:

G#          A#
WO OH OH CIUA

D#          C
Per fortuna che ci sei

G#       A#
WO OH CIUA

D#             C
Qui spariscono anche i guai

G#              A#
finchè il cuore non la smette

e|--------------------------------------------------|
B|--------------------------------------------------|
G|---------------------------10--8------8~----------|
D|------------------------------------6-------6~----|
A|--------------------------------------------------|
E|--------------------------------------------------|
   G#            [A#] [A#]
   fra le mani e le   tue...



SOLO:
e|----------------------------------------------------------------------|
B|----------------------------8-----------------------------------------|
G|------------------------8-----10-8----8-7-----------------------------|
D|------------------6-5-8-------------------8--6-5-------6-5------(6)---|
A|-12\-/6---6-8---8--------------------------------6-8-6-----6-8~---(8)-|
E|--------6-----6-------------------------------------------------------|
       D#     G#    A#   (D#)(A#)       D#     C         G#    A#

e|-------------------------------------------------------------|
B|-------------------------8-----------------------------------|
G|---------------------8-----10-8----8-7-----------------------|
D|---------------6-5-8-------------------8--6-5-------6-5------|
A|---6---6-8---8--------------------------------6-8-6-----6-6~-|
E|-----6-----6-------------------------------------------------|
    D#     G#    A#    (D#)(A#)          D#     G#    A#    D#



ULTIMO RITORNELLO:

G#          A#
WO OH OH CIUA

D#          C
Per fortuna che ci sei

G#       A#
WO OH CIUA

D#             C
Qui spariscono anche i guai

G#              A#
finchè il cuore non la smette

G#            [A#] [A#]      D#..
fra le mani e le   tue tette
VIDEO

Se il video non dovesse essere più disponibile scrivi a indytab@googlemail.com. Grazie!
COMMENTA QUESTA TABLATURA
Devi avere JavaScript attivato per poter commentare! (misura antispam)