IndyTab Logo

BETA VERSION - 321 TABS DISPONIBILI

Cerca una tablatura nel nostro archivio:

Gruppo Canzone


Elenco dei gruppi presenti su IndyTab
Lista di tutte le tablature di IndyTab
DISCLAIMER
Questa tablatura rappresenta l'interpretazione della canzone da parte dell'autore. Può essere usata per scopi di studio, insegnamento e ricerca.

La tab è liberamente riproducibile in forum, blog, siti web (ad eccezione degli archivi di tablature online) e stampabile. Non è obbligatorio ma molto gradito citare la fonte (cioè IndyTab), meglio con un link di rimando al nostro sito.
ACCORDATORE
Per accordare la tua chitarra puoi usare il nostro accordatore online
TAB REQUEST
Stai cercando una tablatura? Suggeriscila compilando il modulo sottostante!

Gruppo
Titolo
Tua Mail

(la tua mail verrà usata per ricontattarti quando la tablatura sarà online)
DELLO STESSO GRUPPO

Porno Riviste // Come Ti Va

Tablatura tratta dall'album: Codice A Sbarre

(clicca qui per la legenda)

(clicca qui per il video)

    A   D   E   F#  E(0)  C#  G
e|--------------------------------|
B|--------------------------------|
G|------7---9-------------6-------|
D|--7---7---9---4----2----6---5---|
A|--7---5---7---4----2----4---5---|
E|--5-----------2----0--------3---|


--------------------------------------------------------------------------
 
 
INTRO: A
 

 
STROFA 1:

        A              D                 E              A    
Come ti va hai una scintilla un pieno di benza e l'umidità

          D                    E              F#         E(0)         G
tienila accesa e lascia che il vento passi di qua fidati so com'è che va

        A              D                   E              A
come si sta ho una scintilla in mezzo alla pancia come ti va

            [D]D          E              F#           E(0)         G
il fuoco invisibile di un disco illumina già illumina qua illumina qua

 
 
RITORNELLO:
 
           A            C#  
Spinti dal buio di un'estate

          D               A
poi il silenzio giù in città

         D              E              A    E(a colpi)
senza pensare a come si va e a dove si fa

              A           C#
poi spegni la luce nel cervello

         D            A
o cerchi lei poi si vedrà

         D              E              A    F#
senza pensare a come si va e a dove si fa,  oh

         D              E            A..
ma me ne sbatto come si fa o dove si va
 
 

STROFA 2:  

(accordi suonati con due pennate in p.m. ed una pennata aperta) 

         A               D               E                A
Digli di no è come se un cavo ad alta tensione è sotto di te

         D                        E
tieni il volante e un occhio alla luna

         F#+F#..      E(0)+E(0).. G(accordo aperto)+G..
vogliono te, vogliono me vogliono che
 

(da quì accordi aperti) 
 
           A                    D
Non ci sia più quella goccia di sangue che

          E                A
sogna una vita che qui non ha

           [D]D          E                F#
un milite autonomo che uccide chi non gli da

            E(0)       G
ciò che non ha come ti va

 
 
RITORNELLO:

           A            C#  
Spinti dal buio di un'estate

          D               A
poi il silenzio giù in città

         D              E              A    E(a colpi)
senza pensare a come si va e a dove si fa

              A           C#
poi spegni la luce nel cervello

         D            A
o cerchi lei poi si vedrà

         D              E              A    F#
senza pensare a come si va e a dove si fa,  oh

         D              E            A..
ma me ne sbatto come si fa o dove si va

 
 
PONTE:

(in p.m. con ritmica come prima)

A    D  E  
  
A  C#  D  E

F#.. E(0).. G [G]

  
 
RITORNELLO:

           A            C#  
Spinti dal buio di un'estate

          D               A
poi il silenzio giù in città

         D              E              A    E(a colpi)
senza pensare a come si va e a dove si fa

              A           C#
poi spegni la luce nel cervello

         D            A
o cerchi lei poi si vedrà

         D              E              A    F#
senza pensare a come si va e a dove si fa,  oh
 
         D              E            A   F#
ma me ne sbatto come si fa o dove si va

         D             [E]
si me ne sbatto come si fa
 


SOLO:
 
e|-------------------------------------------------------|
B|------------------------5---7--------------------------|
G|------------7---6----------------6------4---4/6---4----|
D|-------7-------------7---------------7-----------------|
A|---7---------------------------------------------------|
E|--|-p.m.-|---------------------------------------------|
                  A       C#       F#               E(0)
 
e|-------------------------------------------------------|
B|--------------------------5---7------------------------|
G|---------------7---6---------------6-----4--4/6---4----|
D|-----------7----------7---------------7----------------|
A|---5-5-5-5---------------------------------------------|
E|-------------------------------------------------------|
                     A     C#        F#              E(0)

e|---------------------------------4/5--4----------------|
B|---5---7---5---------5---7---5-----------5-------------|
G|--------------------------------------------6---4------|
D|---------------7---------------------------------------|
A|-------------------------------------------------------|
E|-------------------------------------------------------|
                 F#                   D           E

(* ripetere la nota più volte)
e|---------------------------------------------------------|
B|--------------------------5---7--------------------------|
G|---------------7---6---------------6-----4--4/6---4*-----|
D|-----------7----------7---------------7--------------7\--|
A|---5-5-5-5-----------------------------------------------|
E|---------------------------------------------------------|
                     A      C#       F#             G
 
e|------------------------------------------------------------------|
B|--|---p.m.---|---------------|---p.m.---|-------------------------|
G|---------------7--6----4------------------7-6---6--6--6---4--4----|
D|------------7-------------7------------7-----------------------7--|
A|------4--7-----------------------4--7-----------------------------|
E|---5--------------------------5-----------------------------------|
    [A][A]                     [A][A]                      

e|------------------------------------------------------------------|
B|--|---p.m.---|---------------|---p.m.---|-------------------------|
G|---------------7--6----4------------------7-6---6--6--6---4--4----|
D|------------7-------------7------------7-----------------------7--|
A|------4--7-----------------------4--7-----------------------------|
E|---5--------------------------5-----------------------------------|
    [A][A]                     [A][A]             [A][A][A][A][A][A]
VIDEO

Se il video non dovesse essere più disponibile scrivi a indytab@googlemail.com. Grazie!
COMMENTA QUESTA TABLATURA
Devi avere JavaScript attivato per poter commentare! (misura antispam)