IndyTab Logo

BETA VERSION - 321 TABS DISPONIBILI

Cerca una tablatura nel nostro archivio:

Gruppo Canzone


Elenco dei gruppi presenti su IndyTab
Lista di tutte le tablature di IndyTab
DISCLAIMER
Questa tablatura rappresenta l'interpretazione della canzone da parte dell'autore. Può essere usata per scopi di studio, insegnamento e ricerca.

La tab è liberamente riproducibile in forum, blog, siti web (ad eccezione degli archivi di tablature online) e stampabile. Non è obbligatorio ma molto gradito citare la fonte (cioè IndyTab), meglio con un link di rimando al nostro sito.
ACCORDATORE
Per accordare la tua chitarra puoi usare il nostro accordatore online
TAB REQUEST
Stai cercando una tablatura? Suggeriscila compilando il modulo sottostante!

Gruppo
Titolo
Tua Mail

(la tua mail verrà usata per ricontattarti quando la tablatura sarà online)
DELLO STESSO GRUPPO

Porno Riviste // In Mutande Da Te

Tablatura tratta dall'album: Sogni, Incubi E... La Cosa Inutile

(clicca qui per la legenda)

(clicca qui per il video)

     A#  D#  F
e|----------------|
B|----------------|
G|-------8---10---|
D|---8---8---10---|
A|---8---6---8----|
E|---6------------|


--------------------------------------------------------------------------


INTRO:
e|--------------------------------------------------------|
B|--------------------------------------------------------|
G|-7-7-7-7------8-8-8-8-------10-10-10-10-----8-8-8-8-----|
D|--8-8-8-8------8-8-8-8--------8--8--8--8-----8-8-8-8----|  x3
A|--------------------------------------------------------|
E|--------------------------------------------------------|
  [A#]A#(p.m.)  [A#]A#(p.m.)  [A#]A#(p.m.)   [A#]A#(p.m.)

e|--------------------------------------------------------|
B|--------------------------------------------------------|
G|-7-7-7-7------8-8-8-8-------10-10-10-10-----8~~---------|
D|--8-8-8-8------8-8-8-8--------8--8--8--8----------------|
A|--------------------------------------------------------|
E|--------------------------------------------------------|
  [A#]A#(p.m.)  [A#]A#(p.m.)  [A#]A#(p.m.)    A#..



STROFA:

A#         F    D#            A#
Stiamo bussando in mutande da te

A#         F     D#           A#..
Accendi il fuoco indovina chi c'è

A#           F
Niente più accappatoio più

A#         F
Niente guanti di lana più

A#        F                  [F]
Niente calze di cuoio finchè


In mutande da te



STROFA:

A#       F     D#               A#
Come una volta io non cambio finchè

A#         F      D#           A#..
Sotto il cappotto indovina chi c'è

A#           F
Niente più accappatoio più

A#         F
Niente guanti di lana più

A#        F                  [F]
Niente calze di cuoio finchè



RITORNELLO:

A#
In mutande da

D#
In mutande da

F             A#
In mutande da te, oh oh oh

A#
In mutande da

D#
In mutande da

F
In mutande da



SOLO:

e|----------------------------------------|
B|----------------------------------------|
G|-7-----7-8-7---8-10-8-7---8-7----7------|
D|---8--------------------------10---10---|
A|----------------------------------------|
E|----------------------------------------|
   A#      D#      F        A#

e|---------------------------------------------|
B|---------------------------------------------|
G|-7-----7-8-8-7-7---8-10-8-7---8-7----7-------|
D|---8------------------------------10---10-8--|  x2
A|---------------------------------------------|
E|---------------------------------------------|
   A#      D#          F        A#

e|-----------------------------------------------|
B|-----------------------------------------------|
G|-7-----7-8-8-7-7---8-10-8-7---8-8-7----7-------|
D|---8--------------------------------10---10-8--|  
A|-----------------------------------------------|
E|-----------------------------------------------|
   A#      D#          F        A#..



OUTRO:

A#           F
Niente più accappatoio più

A#         F
Niente guanti di lana più

A#        F                  [F]
Niente calze di cuoio finchè

              A#     A#.. [A#]
in mutande da te
VIDEO

Se il video non dovesse essere più disponibile scrivi a indytab@googlemail.com. Grazie!
COMMENTA QUESTA TABLATURA
Devi avere JavaScript attivato per poter commentare! (misura antispam)