IndyTab Logo

BETA VERSION - 321 TABS DISPONIBILI

Cerca una tablatura nel nostro archivio:

Gruppo Canzone


Elenco dei gruppi presenti su IndyTab
Lista di tutte le tablature di IndyTab
DISCLAIMER
Questa tablatura rappresenta l'interpretazione della canzone da parte dell'autore. Può essere usata per scopi di studio, insegnamento e ricerca.

La tab è liberamente riproducibile in forum, blog, siti web (ad eccezione degli archivi di tablature online) e stampabile. Non è obbligatorio ma molto gradito citare la fonte (cioè IndyTab), meglio con un link di rimando al nostro sito.
ACCORDATORE
Per accordare la tua chitarra puoi usare il nostro accordatore online
TAB REQUEST
Stai cercando una tablatura? Suggeriscila compilando il modulo sottostante!

Gruppo
Titolo
Tua Mail

(la tua mail verrà usata per ricontattarti quando la tablatura sarà online)
DELLO STESSO GRUPPO

Porno Riviste // Niente Riflesso

Tablatura tratta dall'album: Sogni, Incubi E... La Cosa Inutile

(clicca qui per la legenda)

    C  A  A#  F  G
e|------------------|
B|------------------|
G|--5---------------|
D|--5--7--8---3--5--|
A|--3--7--8---3--5--|
E|-----5--6---1--3--|


--------------------------------------------------------------------------


INTRO:

(palm muted)
C A A# F G
C A A# F G

(accordi normali, suonare più volte le note segnate con .)
e|--------------------------------------------------|
B|-8~--6-5-6-5----------5-6-5------5-----------(5)--|
G|-------------5~---5-7-------7-5----7~----5-7------|
D|--------------------------------------------------|
A|--------------------------------------------------|
E|--------------------------------------------------|
   C       A              A#         F    G

e|-.-----------.------------------------------------|
B|-8~--6-5-6-5----------5-6-5h6p5-----5-------------|
G|-------------5~---5-7------------5-----7~---------|
D|--------------------------------------------------|
A|--------------------------------------------------|
E|--------------------------------------------------|
   C       A              A#             F   G



STROFA:

C
Ti alzi una mattina

        A
Come al solito in rovina

          A#
Con quegl'occhi gonfi

             F  G
Come due bignè

C
Sveglia rompipalle

        A
Sembran passi d'elefante

         A#
Spegli e scappi in bagno

              F  G
Ma che cosa c'è

C
Guardi e urli nello specchio

G
Che non vedi il tuo riflesso

A#
Ma uno sguardo

                 F  G
Spento che non c'è

C
Strani occhi color sasso

G
Come sfondo un buio spazio

  A#                         F G
E mille stelle senza più confine



STACCO:
(accordi normali, suonare più volte le note segnate con .)
e|--------------------------------------------------|
B|-8~--6-5-6-5----------5-6-5------5-----------(5)--|
G|-------------5~---5-7-------7-5----7~----5-7------|
D|--------------------------------------------------|
A|--------------------------------------------------|
E|--------------------------------------------------|
   C       A              A#         F    G

e|-.-----------.------------------------------------------|
B|-8~--6-5-6-5----------5-6-5h6p5-----5-------------------|
G|-------------5~---5-7------------5-----7~-----5-4--5----|
D|--------------------------------------------------------|
A|--------------------------------------------------------|
E|--------------------------------------------------------|
   C       A              A#             F   G      [C]

[C] (C)[A] (A)[A#] (A#)[F] (F)[G] (G)

Chitarra 1: [C] (C)[A] (A)[A#] (A#)[F] (F)[G] (G)[C]
Chitarra 2:  C      A      A#       F      G     [C] (tutti p.m.)



STROFA:

C..
Ti alzi una mattina

        A..
Come al solito in rovina

          A#..
Con quegl'occhi gonfi

             F..  G..
Come due bignè

C..
Sveglia rompipalle

        A..
Sembran passi d'elefante

         A#..
Spegli e scappi in bagno

              F..  G..
Ma che cosa c'è

C
Guardi e urli nello specchio

G
Che non vedi il tuo riflesso

A#
Ma uno sguardo

                 F  G
Spento che non c'è

C
Strani occhi color sasso

G
Come sfondo un buio spazio

  A#                         F G
E mille stelle senza più confine



RITORNELLO:

C        G
Niente riflesso

            A#
Per chi non sa parlare ne dosare

F           G
Ne riflettere

C         G
Non c'è riflesso

            A#
Per chi non sa parlare ne dosare

F        G  C.. A.. A#.. F.. G..
Ne riflettereeeeeeeeeeeeeeeeeeee



OUTRO:
(accordi normali, suonare più volte le note segnate con .)
e|--------------------------------------------------|
B|-8~--6-5-6-5----------5-6-5------5-----------(5)--|
G|-------------5~---5-7-------7-5----7~----5-7------|
D|--------------------------------------------------|
A|--------------------------------------------------|
E|--------------------------------------------------|
   C       A              A#         F    G

e|-.-----------.----------------------------------------------|
B|-8~--6-5-6-5----------5-6-5h6p5-----5-----------------------|
|-------------5~---5-7------------5-----7~-----5-4---------5--|
D|--------------------------------------------------5---------|
A|------------------------------------------------------------|
E|------------------------------------------------------------|
   C       A              A#             F   G      C..   [C]
COMMENTA QUESTA TABLATURA
Devi avere JavaScript attivato per poter commentare! (misura antispam)