IndyTab Logo

BETA VERSION - 321 TABS DISPONIBILI

Cerca una tablatura nel nostro archivio:

Gruppo Canzone


Elenco dei gruppi presenti su IndyTab
Lista di tutte le tablature di IndyTab
DISCLAIMER
Questa tablatura rappresenta l'interpretazione della canzone da parte dell'autore. Pu essere usata per scopi di studio, insegnamento e ricerca.

La tab liberamente riproducibile in forum, blog, siti web (ad eccezione degli archivi di tablature online) e stampabile. Non obbligatorio ma molto gradito citare la fonte (cio IndyTab), meglio con un link di rimando al nostro sito.
ACCORDATORE
Per accordare la tua chitarra puoi usare il nostro accordatore online
TAB REQUEST
Stai cercando una tablatura? Suggeriscila compilando il modulo sottostante!

Gruppo
Titolo
Tua Mail

(la tua mail verr usata per ricontattarti quando la tablatura sar online)
DELLO STESSO GRUPPO

Derozer // Week End

Tablatura tratta dall'album: Bar

(clicca qui per la legenda)

    B  E  C#  F#  G#  E3 F#(II)
e|----------------------------|
B|----------------------------|
G|-----9------11------9-------|
D|--9--9--11--11--6---6----4--|
A|--9--7--11--9---6---7----4--|
E|--7-----9-------4--------2--|


--------------------------------------------------------------------------


INTRO:

[B]  [E3]  [C#]  [F#(II)]  (pickslide)

B  E3  C#  F#(II)



STROFA:

B                  E3
Dopo una settimana di duro lavoro

C#                       F#(II)
finalmente arriva il meritato riposo

B                           E3
quante frustrazioni fino ad oggi accumulato

  C#                         F#(II)
e quante umiliazioni a denti stretti sopportato



CORO:
B  E3  C#  F#(II)   x2



STROFA:

B                    E3
ma adesso finalmente  arrivato il tuo week end

  C#                       F#(II)
e tu con i tuoi amici vi divertirete un sacco

B          E3         C#          F#(II)
dove si va cosa si fa  gia tutto programmato

B              E3
e come un battito di mani

C#             F#(II)
tutto quanto  gi passato



CORO:
B  E3  C#  F#(II) 



SOLO:
e|--------------------------------------------------------|
B|--------------------------------------------------------|
G|----8-9-8-------8-9-8-------8-9-8----11-9-8-9-8---------|
D|-9--------11-9--------11-9--------11------------11------|
A|--------------------------------------------------------|
E|--------------------------------------------------------|
   B                       C#

e|--------------------------------------------------------|
B|--------------------------------------------------------|
G|----8-9-8-------8-9-8-------8-9-8----11-9-8-9-8---------|
D|-9--------11-9--------11-9--------11------------11------|
A|--------------------------------------------------------|
E|--------------------------------------------------------|
   B                       C#                         B [B]



PONTE:

G#                 B
ma come da copione questo week end  un bidone

    E
per chi non ha interessi

        F#
non c' tregua per la frustrazione

  G#                         B
e tu con i tuoi amici non vi date mai niente da fare

     E                       F#
resterete sempre l tutta la vita a lamentarvi



OUTRO:

    B                     E
che non c' mai niente da fare

C#                 F#
non ci resta altro che fumare

B                     E
non c' mai niente da fare

C#                 F#
non ci resta altro che fumare

B                     E
non c' mai niente de fare

C#                 F#
non ci resta altro che fumare

B                     E
non c' mai niente de fare

C#                 F#          B B\
non ci resta altro che fumare
COMMENTA QUESTA TABLATURA
Devi avere JavaScript attivato per poter commentare! (misura antispam)