IndyTab Logo

BETA VERSION - 321 TABS DISPONIBILI

Cerca una tablatura nel nostro archivio:

Gruppo Canzone


Elenco dei gruppi presenti su IndyTab
Lista di tutte le tablature di IndyTab
DISCLAIMER
Questa tablatura rappresenta l'interpretazione della canzone da parte dell'autore. Può essere usata per scopi di studio, insegnamento e ricerca.

La tab è liberamente riproducibile in forum, blog, siti web (ad eccezione degli archivi di tablature online) e stampabile. Non è obbligatorio ma molto gradito citare la fonte (cioè IndyTab), meglio con un link di rimando al nostro sito.
ACCORDATORE
Per accordare la tua chitarra puoi usare il nostro accordatore online
TAB REQUEST
Stai cercando una tablatura? Suggeriscila compilando il modulo sottostante!

Gruppo
Titolo
Tua Mail

(la tua mail verrà usata per ricontattarti quando la tablatura sarà online)
DELLO STESSO GRUPPO

Derozer // Amo Il Lunedì

Tablatura tratta dall'album: Bar

(clicca qui per la legenda)

    G#  B  E  C#  D#  F#
e|-------------------------|
B|-------------------------|
G|---------9--6---8---11---|
D|--6---9--9--6---8---11---|
A|--6---9--7--4---6---9----|
E|--4---7------------------|


--------------------------------------------------------------------------


INTRO:
(basso) F#..
B.. B.. B.. F#.. (pickslide)



STROFA:

G#             E
Di nuovo è lunedì

B                     C#            D#
e tu ti svegli con la scimmia sulle spalle

G#            E
vorresti dire si!

B                    C#                D#
ma il peso sulle tue spalle è troppo pesante

   E                     C#
mi guardi saltellare non sai più cosa fare

D#                      B
non è colpa mia se è così

   E                      C#
mi guardi saltellare e la tua mente ti assale

   D#..        D#..       D#..  D#..  D#..  D#..
ma non è colpa mia se per me è un giorno fantastico io



RITORNELLO:

B          G#         E
Amo il lunedì uho uho uho

                     C#         F#
mio giorno preferito della settimana

B          G#         E
Amo il lunedì uho uho uho

                     C#         F#
mio giorno preferito della settimana



STACCO:
B (D#)(B) E F# x2
G#.. E.. B.. C#.. D#.. x2



CORO:
G# E B C# D# x2



SOLO:
e|--------------------------------------------------|
B|--------------------------------------------------|
G|------8-6-8-9-8--6--8-6-----------6-8--6----------|
D|--6---------------------8-9-9-9-9----------9-8-9--|
A|--------------------------------------------------|
E|--------------------------------------------------|
    G#        E             B       C#   D#

e|--------------------------------------------------|
B|--------------------------------------------------|
G|------8-6-8-9-8--6---8-6-----11-9-8-9---8-6-8-----|
D|--6----------------------9------------------------|
A|--------------------------------------------------|
E|--------------------------------------------------|
    G#        E                B              C#

e|--------------------------------------------------|
B|--------------------------------------------------|
G|--6---6-------------------------------------------|
D|----9-------9-8-9---6~----------------------------|
A|--------------------------------------------------|
E|--------------------------------------------------|
        D#           (G#)



STROFA:

G#             E
e passa il lunedì

B                     C#          D#
e lentamente la tua scimmia se ne va

G#                E
starà via qualche dì

B                    C#           D#
o almeno fino al tuo prossimo lunedì

   E                     C#
mi guardi saltellare non sai più cosa fare

D#                      B
non è colpa mia se è così

   E                      C#
mi guardi saltellare e la tua mente ti assale

   D#..        D#..       D#..  D#..  D#..  D#..
ma non è colpa mia se per me è un giorno fantastico io



RITORNELLO FINALE:

B          G#         E
Amo il lunedì uho uho uho

                     C#         F#
mio giorno preferito della settimana

B          G#         E
Amo il lunedì uho uho uho

                     C#         F#
mio giorno preferito della settimana

B          G#         E
Amo il lunedì uho uho uho

                     C#         F#
mio giorno preferito della settimana

B          G#         E
Amo il lunedì uho uho uho

                     C#         F#
mio giorno preferito della settimana

E                    C#         F#
mio giorno preferito della settimana

E                    C#         F#          B.. B..\
mio giorno preferito della settimana il lunedì
COMMENTA QUESTA TABLATURA
Devi avere JavaScript attivato per poter commentare! (misura antispam)