IndyTab Logo

BETA VERSION - 321 TABS DISPONIBILI

Cerca una tablatura nel nostro archivio:

Gruppo Canzone


Elenco dei gruppi presenti su IndyTab
Lista di tutte le tablature di IndyTab
DISCLAIMER
Questa tablatura rappresenta l'interpretazione della canzone da parte dell'autore. Può essere usata per scopi di studio, insegnamento e ricerca.

La tab è liberamente riproducibile in forum, blog, siti web (ad eccezione degli archivi di tablature online) e stampabile. Non è obbligatorio ma molto gradito citare la fonte (cioè IndyTab), meglio con un link di rimando al nostro sito.
ACCORDATORE
Per accordare la tua chitarra puoi usare il nostro accordatore online
TAB REQUEST
Stai cercando una tablatura? Suggeriscila compilando il modulo sottostante!

Gruppo
Titolo
Tua Mail

(la tua mail verrà usata per ricontattarti quando la tablatura sarà online)
DELLO STESSO GRUPPO

Duracel // Copo È Il Nostro Bar

Tablatura tratta dall'album: Domani È Come Oggi

(clicca qui per la legenda)

    C#  G#  F#  D#  G   C
e|--------------------------|
B|--------------------------|
G|--6-----------8-------5---|
D|--6---6---4---8---5---5---|
A|--4---6---4---6---5---3---|
E|------4---2-------3-------|


--------------------------------------------------------------------------


INTRO:

G/G# G/G# C# G# D#



STROFA 1:

C#        G#     F#
Copo è il nostro bar

   C#            G#
perchè c'è gente come noi

C#      G#    F#
che non prova mai

  C#              G#
a dare un tono ai propri guai!

F#     G#
Dentro lì

F#              C#
ben oltre i limiti

F#     G#
dell'età

   F#         G#          C#  G/G# G/G#  C# G# D#
di questa periferica realtà!



STROFA 2:

C#        G#     F#
Copo è il nostro bar

  C#          G#
e per fortuna che non è

C#      G#      F#
un club o un privè

C#          G#
e non paghi per entrare

F#   G#
è poesia

   F#            C#
lo stare in compagnia

  F#   G#
questa qua

     F#          G#          C#
è il bello delle piccole realtà!



RIFF:

e|-----------------------------------|
B|-9-----6-9-----6-7-6---------------|
G|---6-8-----6-8-------6----6-8-6----|
D|-----------------------------------|
A|-----------------------------------|
E|-----------------------------------|
   G#              F#

e|-----------------------------------|
B|-9-----6-9-----6-7-6---------------|
G|---6-8-----6-8-------8-6-----------|
D|-----------------------------------|
A|-----------------------------------|
E|-----------------------------------|
   G#              F#  G#



CORO FINALE:

e|------------------------------------------|
B|------------------------9-----6-7-6-------|
G|--------------------------6-8-------8-6---|
D|------------------------------------------|
A|------------------------------------------|
E|------------------------------------------|
   C#        G#     F#    C#      G#
   Copo è il nostro bar

e|------------------------------------------|
B|------------------------9-----6-7-6-------|
G|--------------------------6-8-------8-6---|
D|------------------------------------------|
A|------------------------------------------|
E|------------------------------------------|
   C#        G#     F#    C#      G#
   Copo è il nostro bar

e|------------------------------------------|
B|------------------------9-----6-7-6-------|
G|--------------------------6-8-------8-6---|
D|------------------------------------------|
A|------------------------------------------|
E|------------------------------------------|
   C#        G#     F#    C#      G#
   Copo è il nostro bar

C#        G#     F#.. G#.. C# F# C# [C#][C][C#] 
Copo è il nostro bar
COMMENTA QUESTA TABLATURA
Devi avere JavaScript attivato per poter commentare! (misura antispam)