IndyTab Logo

BETA VERSION - 321 TABS DISPONIBILI

Cerca una tablatura nel nostro archivio:

Gruppo Canzone


Elenco dei gruppi presenti su IndyTab
Lista di tutte le tablature di IndyTab
DISCLAIMER
Questa tablatura rappresenta l'interpretazione della canzone da parte dell'autore. Può essere usata per scopi di studio, insegnamento e ricerca.

La tab è liberamente riproducibile in forum, blog, siti web (ad eccezione degli archivi di tablature online) e stampabile. Non è obbligatorio ma molto gradito citare la fonte (cioè IndyTab), meglio con un link di rimando al nostro sito.
ACCORDATORE
Per accordare la tua chitarra puoi usare il nostro accordatore online
TAB REQUEST
Stai cercando una tablatura? Suggeriscila compilando il modulo sottostante!

Gruppo
Titolo
Tua Mail

(la tua mail verrà usata per ricontattarti quando la tablatura sarà online)
DELLO STESSO GRUPPO

Duracel // Antipatica

Tablatura tratta dall'album: Domani È Come Oggi

(clicca qui per la legenda)

(clicca qui per il video)

     D  G  A  B  C#
e|--------------------|
B|--------------------|
G|---7--------4--6----|
D|---7--5--7--4--6----|
A|---5--5--7--2--4----|
E|------3--5----------|


--------------------------------------------------------------------------


INTRO:
e|--------------------------------------------------------|
B|--7-----------------------------------------------------|
G|----9-7-9-7------7-6----6------7-6--7-------------------|
D|------------7--------9----9-----------9----9-99--7-7----|
A|--------------------------------------------------------|
E|--------------------------------------------------------|
            D               G                        D

e|--------------------------------------------------------|
B|--7----------------------------------------8-7----------|
G|----9-7-9-7------7-6----6------7-9--7-9--------7-7------|
D|------------7--------9----9-----------------------------|
A|--------------------------------------------------------|
E|--------------------------------------------------------|
            D               G                      D    



STROFA:

[D]         D                  G
 Mi diverto quando in stazione tu

                               D
non mi guardi mai tanto già lo sai

                                G
che sono già perso per un'altra lei

                               D
lo capisci o no? Non ti guardo più



RITORNELLO:

A
  Ma chi cazzo sei, ma che cazzo vuoi antipatica Elisa!

D (C#) B
D (C#) B
D (C#) B
(G) A [A]



STROFA:

                D                    G
Non sei bella e neanche furba più di me

                                D
questo già lo sai che io già lo so

                                G
Che sono già perso per un'altra lei

                               D
lo capisci o no? Non ti guardo più



RITORNELLO:

A
  Ma chi cazzo sei, ma che cazzo vuoi antipatica Elisa!

D (C#) B
D (C#) B
D (C#) B
(G) A



OUTRO:

      G            A   G..     A..
Tutti dicon che tu sei antipatica

G         A               D    G   
ma adesso tu non mi piaci più!

D         A            D    G    
adesso tu non mi piaci più!

D         A            D    G   A  [D][D]D..
adesso tu non mi piaci              più!
VIDEO

Se il video non dovesse essere più disponibile scrivi a indytab@googlemail.com. Grazie!
COMMENTA QUESTA TABLATURA
Devi avere JavaScript attivato per poter commentare! (misura antispam)