IndyTab Logo

BETA VERSION - 321 TABS DISPONIBILI

Cerca una tablatura nel nostro archivio:

Gruppo Canzone


Elenco dei gruppi presenti su IndyTab
Lista di tutte le tablature di IndyTab
DISCLAIMER
Questa tablatura rappresenta l'interpretazione della canzone da parte dell'autore. Può essere usata per scopi di studio, insegnamento e ricerca.

La tab è liberamente riproducibile in forum, blog, siti web (ad eccezione degli archivi di tablature online) e stampabile. Non è obbligatorio ma molto gradito citare la fonte (cioè IndyTab), meglio con un link di rimando al nostro sito.
ACCORDATORE
Per accordare la tua chitarra puoi usare il nostro accordatore online
TAB REQUEST
Stai cercando una tablatura? Suggeriscila compilando il modulo sottostante!

Gruppo
Titolo
Tua Mail

(la tua mail verrà usata per ricontattarti quando la tablatura sarà online)
DELLO STESSO GRUPPO

Porno Riviste // Richieste Di Lavoro

Tablatura tratta dall'album: Cosa Facciamo?

(clicca qui per la legenda)

(clicca qui per il video)

    A   D   B   E   G#
e|------------------------|
B|------------------------|
G|------7-------9---------|
D|--7---7---9---9---6-----|
A|--7---5---9---7---6-----|
E|--5-------7-------4-----|


--------------------------------------------------------------------------
Un ringraziamento a Zio Konfa per la realizzazione di questa tab
--------------------------------------------------------------------------


INTRO:
e|----------------------------------------------------------------------|
B|----------------------------------------------------------------------|
G|--6--6-6-6-6------6-7--6---6----------------------6-7-6h7p6-----------|
D|--------------7-9--------7--------9--9-9-9-9--6-9-----------7-9-------|
A|----------------------------------------------------------------------|
E|----------------------------------------------------------------------|
    A..               D..           B..               E..             

e|----------------------------------------------------------------------|
B|----------------------------------------------------------------------|
G|--6--6-6-6-6------6-7-6h7p6---6---------------------6-7-6-------------|
D|--------------7-9-----------7-------9--9-9-9-9--6-9-------7-9---------|
A|----------------------------------------------------------------------|
E|----------------------------------------------------------------------|
    A                 D              B                  E



STROFA 1:

A                  D 
La mia vita non ha soluzione, 

   B                   E 
di notte sogno la tua abitazione

A                      D
io mi installo e non pago l'affitto, 

   B                    E
ma sai che adesso tutto sta al suo posto



RITORNELLO:

    A                     D
Mantieniti più giovane mantieniti elegante

      B                           E
ma mantienimi con tutto il tuo contante.

   A                       D
la casa adesso luccica, la cena è già scaldata

         B                     E
e tu chiamami, sono io mani di fata

[A][A]                [A][A]               [A][A]               D  E
      nella tua casa,       nella tua casa,      nella tua casa

[A][A]                [A][A]               [A][A]               D     E
      nella tua casa,       nella tua casa,      nella tua casa



STROFA 2:

A                 D
Colazione a letto la mattina

   B                     E 
ti svegli e sai che sono già in cucina

A                 D
qui nessuno pensa più al bucato

   B                       E 
lo sai che adesso io vi ho sistemato.



RITORNELLO:

    A                     D
Mantieniti più giovane mantieniti elegante

      B                           E
ma mantienimi con tutto il tuo contante.

   A                       D
la casa adesso luccica, la cena è già scaldata

         B                     E     [A][A]    [A][A]     [A][A] 
e tu chiamami, sono io mani di fata


             
ASSOLO:

e|----------------------------------------------------------------------|
B|----------------------------------------------------------------------|
G|--6--6-6-6-6------6-7--6h7p6---6----------------------6-7-6h7p6-------|
D|--------------7-9------------7--------9--9-9-9-9--6-9-----------7-9---|
A|----------------------------------------------------------------------|
E|----------------------------------------------------------------------|
    A                 D                 B                 E             

e|----------------------------------------------------------------------|
B|----------------------------------------------------------------------|
G|---/9-9-9-9-9-7-6----------/7-7-7-7-7-7-6-----(6)---------------------|
D|------------------------------------------(7)-------------------------|
A|----------------------------------------------------------------------|
E|----------------------------------------------------------------------|
      A                      D

e|----------------------------------------------------------------------|
B|----------------------------------------------------------------------|
G|---------------------6-7-6h7p6----------------------------------------|
D|----9--9-9-9-9--6-9-----------7-9-------------------------------------|
A|----------------------------------------------------------------------|
E|----------------------------------------------------------------------|
      B                  E


STROFA 3:

[A]               [A][D]
Sono il sogno di qualsiasi mente

    B                    E
con me con te lo sai non fai più niente

[A]                 [A]D
 chiama adesso senza esitazione

    [B]                  [B]E
io infondo vita alla tua abitazione.



RITORNELLO:

    A                     D
Mantieniti più giovane mantieniti elegante

      B                           E
ma mantienimi con tutto il tuo contante.

   A                       D
la casa adesso luccica, la cena è già scaldata

         B                     E
e tu chiamami, sono io mani di fata

[A][A]               [A][A]               [A][A]               D A [G#][A]
      nella tua casa,      nella tua casa,      nella tua casa

                [A][A]               [A][A]               D A [G#][A]
nella tua casa,       nella tua casa,      nella tua casa



CORO FINALE:

A  D  B  E (X2)
[A]
VIDEO

Se il video non dovesse essere più disponibile scrivi a indytab@googlemail.com. Grazie!
COMMENTA QUESTA TABLATURA
Devi avere JavaScript attivato per poter commentare! (misura antispam)