IndyTab Logo

BETA VERSION - 321 TABS DISPONIBILI

Cerca una tablatura nel nostro archivio:

Gruppo Canzone


Elenco dei gruppi presenti su IndyTab
Lista di tutte le tablature di IndyTab
DISCLAIMER
Questa tablatura rappresenta l'interpretazione della canzone da parte dell'autore. Può essere usata per scopi di studio, insegnamento e ricerca.

La tab è liberamente riproducibile in forum, blog, siti web (ad eccezione degli archivi di tablature online) e stampabile. Non è obbligatorio ma molto gradito citare la fonte (cioè IndyTab), meglio con un link di rimando al nostro sito.
ACCORDATORE
Per accordare la tua chitarra puoi usare il nostro accordatore online
TAB REQUEST
Stai cercando una tablatura? Suggeriscila compilando il modulo sottostante!

Gruppo
Titolo
Tua Mail

(la tua mail verrà usata per ricontattarti quando la tablatura sarà online)
DELLO STESSO GRUPPO

Porno Riviste // Medicina

Tablatura tratta dall'album: Codice A Sbarre

(clicca qui per la legenda)

(clicca qui per il video)

    A   D   E
e|--------------|
B|--------------|
G|------7---9---|
D|--7---7---9---|
A|--7---5---7---|
E|--5-----------|


--------------------------------------------------------------------------


RIFF1:
(accordi in p.m.)
e|-----------------------------------------------------------------|
B|-----------------------------------------------------------------|
G|------------------7-7-7-7-7b9r7--9-9-9-9-9b11r9--9-9-9-9-9b11r9--|
D|--7-7-7-7--7b9r7--7-7-7-7--------9-9-9-9---------9-9-9-9---------|
A|--7-7-7-7---------5-5-5-5--------7-7-7-7---------7-7-7-7---------|
E|--5-5-5-5--------------------------------------------------------|



ARPEGGIO:
e|----------------------------------------|
B|----------------------------------------|
G|---------------7--------9--------9------|
D|------7------7---7----9---9----9---9----|
A|----7---7--5--------7--------7----------|
E|--5-------------------------------------|



INTRO:
Suonare RIFF1 due volte.



STROFA:

ARPEGGIO
Mi cambi subito la medicina

ARPEGGIO
niente supposte né novalgina

ARPEGGIO
ti do io il giusto impulso

ARPEGGIO
voglio solo un video clip

[A][A]    [D][D]    [E][E] [E] [E][E]
niente di nuovo niente di bello

[A][A]    [D][D]    [E][E] [E] [E][E]
niente mi toglie da questa tomba

[A][A]    [D][D]    [E][E] [E] [E][E]
ma con la faccia tutta di gomma

A..    D..  E
e grideremooooo



RITORNELLO:

           A           D           E
ma poi chissà se mi conviene che finisce così

            A        D           E
se poi mi annoi dove vado in una vita da v.i.p.

          A          D            E
non ci toccate state zitti non ci dite di sì

         A                D          E
a te non piacciono i miei modi ma va bene così



STACCO:
Suonare il RIFF1 due volte.



STROFA:

ARPEGGIO                           [E(p.m.)][E(p.m.)][E(p.m.)]\
qui esiste solo un punto di vista

ARPEGGIO                                [E(p.m.)][E(p.m.)][E(p.m.)]\
chi non lo accetta qui sanguina e basta

ARPEGGIO                   [E(p.m.)][E(p.m.)][E(p.m.)]
ti do io il giusto impulso

[A]
te lo do io il punto di vista

[A][A]    [D][D]    [E][E] [E] [E][E]
non voglio niente ma fate attenzione

[A][A]    [D][D]    [E][E] [E] [E][E]
notti di luna più effetti speciali

[A][A]    [D][D]    [E][E] [E] [E][E]
lo sto chiedendo da questo momento

A..    D..  E
e grideremooooo



RITORNELLO:

          A                D          E
comunque so che in qualche modo me ne vado da qui

           A           D           E
ho poche idee pochi contatti ma va bene così

          A             D        E
voglio soltanto che nessuno si dimentichi che

          A             D        E
voglio soltanto che nessuno si dimentiche me



SOLO:
[A][A] [D][D] [E][E]

e|----------------------------------------------|
B|----------------10----------------10-9~-------|
G|--6-7-6h7p6---9----9--7-6-------9-------------|
D|------------7-------------9-7-9---------------|
A|----------------------------------------------|
E|----------------------------------------------|
   [E][E][E]  A         D       E

e|----------------------------------------------|
B|----------------10----------------10-9~-------|
G|--6-7-6h7p6---9----9--7-6-------9-------------|
D|------------7-------------9-7-9---------------| x2
A|----------------------------------------------|
E|----------------------------------------------|
              A         D       E

(ripetere più volte l'ultima nota segnata con *)
e|------------------------------------------------|
B|----------------10--------------*---------------|
G|--6-7-6h7p6---9----9--7-6-7---7/9--------9..\---|
D|------------7-----------------------------------|
A|------------------------------------------------|
E|------------------------------------------------|
              A         D         E        E..



STROFA:

ARPEGGIO due volte.

ARPEGGIO
Mi cambi subito la medicina

ARPEGGIO
niente supposte né novalgina

ARPEGGIO
ti do io il giusto impulso

ARPEGGIO  E
e grideremooooo



ULTIMO RITORNELLO:

         A                 D          E
comunque so che in qualche modo me ne vado da qui

           A           D           E
ho poche idee pochi contatti ma va bene così

          A             D        E
voglio soltanto che nessuno si dimentichi che

          A             D        E
voglio soltanto che nessuno si dimentiche me

          A                D          E
comunque so che in qualche modo me ne vado da qui

           A           D           E
ho poche idee pochi contatti ma va bene così

          A             D        E
voglio soltanto che nessuno si dimentichi che

          A             D        E
voglio soltanto che nessuno si dimentiche me

[A][A][A][A][A] [D][D][D][D][D] [E][E] [E]
VIDEO

Se il video non dovesse essere più disponibile scrivi a indytab@googlemail.com. Grazie!
COMMENTA QUESTA TABLATURA
Devi avere JavaScript attivato per poter commentare! (misura antispam)