IndyTab Logo

BETA VERSION - 321 TABS DISPONIBILI

Cerca una tablatura nel nostro archivio:

Gruppo Canzone


Elenco dei gruppi presenti su IndyTab
Lista di tutte le tablature di IndyTab
DISCLAIMER
Questa tablatura rappresenta l'interpretazione della canzone da parte dell'autore. Può essere usata per scopi di studio, insegnamento e ricerca.

La tab è liberamente riproducibile in forum, blog, siti web (ad eccezione degli archivi di tablature online) e stampabile. Non è obbligatorio ma molto gradito citare la fonte (cioè IndyTab), meglio con un link di rimando al nostro sito.
ACCORDATORE
Per accordare la tua chitarra puoi usare il nostro accordatore online
TAB REQUEST
Stai cercando una tablatura? Suggeriscila compilando il modulo sottostante!

Gruppo
Titolo
Tua Mail

(la tua mail verrà usata per ricontattarti quando la tablatura sarà online)
DELLO STESSO GRUPPO

Porno Riviste // La Scatola Dell'Odio

Tablatura tratta dall'album: Codice A Sbarre

(clicca qui per la legenda)

(clicca qui per il video)

    A  E  D  C#  F#  A(VII)
e|------------------------|
B|------------------------|
G|-----9--7--6--------9---|
D|--7--9--7--6---4----7---|
A|--7--7--5--4---4--------|
E|--5------------2--------|


--------------------------------------------------------------------------


ARPEGGIO:
e|--------------------------------------------------|
B|--------------------------------------------------|
G|--------------------------9----9------7----7------|
D|----7----7----7----7-----9-9--9-9----7-7--7-7-----|
A|---7-7--7-7--7-7--7-7---7----7------5----5--------|
E|--5----5----5----5--------------------------------|



STROFA:

ARPEGGIO
Che cosa pensi delle 7 del mattino, 


stai bene in piedi o vedi a stento il tuo vicino

ARPEGGIO
come ti collochi in un clima di passione


mi scusa un attimo che scendo col bastone

A
che cosa pensi delle multinazionali

E                    D
fame nel mondo più politici maiali

A
che cosa pensi della nuova inquisizione

E                        D
sono qui in gabbia ma mi muovo con passione

[A] [C#] [D][C#][D] [E][E][E]



RITORNELLO:

A
qualcosa mi tocca

C#
mi sento lontano

F#
io sono già vecchio

D           E
ti tengo la mano

A
c'è un angolo buio

C#
la scatola chiusa

F#
ti aspetto di sotto

D             E
sei scesa già fusa



CORO:
A C# F# D E
A C# F# D E



STROFA:

ARPEGGIO + A..
che cosa pensi delle botte alla stazione


delle sfilate della moda di stagione

ARPEGGIO
che cosa pensi di vacanze a 5 stelle


quando le stelle son milioni di milioni

A
sai che ti sei alleato con gli stati uniti

E                         D
senti dell'odio o qualche volta ne gioisci

A
che cosa pensi della legalizzazione

E                     D
spinelli si ma invece stop vivisezione

[A] [C#] [D][C#][D] [E][E][E]



SOLO:
e|------------------------------------------------------|
B|------------------------------------------------------|
G|---9-7-6---6---9-7-6---6---9-7-6---6----------7-6-----|
D|---------9-----------9-----------9------7---9-----9---|x2
A|-7-----------7-----------7----------------5-----------|
E|------------------------------------------------------|
   A           C#          F#             D   E

e|------------------------------------------------------|
B|------------------------------------------------------|
G|---9-7-6---6---9-7-6---6---9-7-6---6----------6----9--|
D|---------9-----------9-----------9------7---7----9----|x2
A|-7-----------7-----------7----------------5-----------|
E|------------------------------------------------------|
   A..         C#..        F#..           D..      E..



RITORNELLO:

A
qualcosa mi tocca

C#
mi sento lontano

F#
io sono già vecchio

D           E
ti tengo la mano

A
c'è un angolo buio

C#
la scatola chiusa

F#
ti aspetto di sotto

D             E    A
sei scesa già fusa no



PONTE:

E..
quante volte non ce la faccio più

E..
non esiste una possibilità

E..
sento voci ma è quasi come se

[E]   [E]       [E] [E] [E] [E]
la vendetta la scatola dell'odio e intanto



STROFA:

A
che cosa pensi delle code in tangenziali

E                      D
scegli una vita spegni la televisione

A
ti senti escluso dal concetto di nazione

E                    D
che cosa pensi della polizia italiana

A
dai un tuo giudizio sulle botte agli albanesi

E                    D
lo stile mafia che comanda questi paesi

A
hai mai pigliato a calci in culo emilio fede

E                      D                 [A]
sento la voglia che mi stimola nel piede



OUTRO:
(ritmo ska)

A A D E x2

(da qui una chitarra fa gli stessi accordi in palm muted
suonando A(VII) al posto di A, a volte arpeggiando)

A
sai che sei filmato in ogni cosa che fai

D E
  cosa pensi

A
sai che sei filmato in ogni posto che vai

D E
  cosa pensi

(da qui la chitarra in palm muted aperta con pennate XX)

A
sai che se c'hai i soldi in gabbia non ci vai mai

D E
  cosa pensi

A
vi odio tutti quanti come voi odiate noi

D [E]
  cosa pensi
VIDEO

Se il video non dovesse essere più disponibile scrivi a indytab@googlemail.com. Grazie!
COMMENTA QUESTA TABLATURA
Devi avere JavaScript attivato per poter commentare! (misura antispam)