IndyTab Logo

BETA VERSION - 321 TABS DISPONIBILI

Cerca una tablatura nel nostro archivio:

Gruppo Canzone


Elenco dei gruppi presenti su IndyTab
Lista di tutte le tablature di IndyTab
DISCLAIMER
Questa tablatura rappresenta l'interpretazione della canzone da parte dell'autore. Può essere usata per scopi di studio, insegnamento e ricerca.

La tab è liberamente riproducibile in forum, blog, siti web (ad eccezione degli archivi di tablature online) e stampabile. Non è obbligatorio ma molto gradito citare la fonte (cioè IndyTab), meglio con un link di rimando al nostro sito.
ACCORDATORE
Per accordare la tua chitarra puoi usare il nostro accordatore online
TAB REQUEST
Stai cercando una tablatura? Suggeriscila compilando il modulo sottostante!

Gruppo
Titolo
Tua Mail

(la tua mail verrà usata per ricontattarti quando la tablatura sarà online)
DELLO STESSO GRUPPO

Derozer // Black Out

Tablatura tratta dall'album: Di Nuovo In Marcia

(clicca qui per la legenda)

(clicca qui per il video)

     B  G  E  A  F#  D  E(VII)
e|-----------------------------|
B|-----------------------------|
G|-------------------7----9----|
D|---9--5--2--7--4---7----9----|
A|---9--5--2--7--4---5----7----|
E|---7--3--0--5--2-------------|


--------------------------------------------------------------------------


INTRO:

B                    G   E
Black Out Black Out

B                    G   E
Black Out Black Out

B                    G   E
Black Out Black Out

B                    (G)(F#)(G)(B)[A]
Black Out Black Out



STROFA:

B                    (F#)G      (F#)E
Nostra potentissima e gloriosa società

(A)B                          (F#)G           A
   Sembra onnipotente e immune ad ogni avversità

    B                       (F#)G    (F#)E
Con la sua prepotenza l'uomo si è dimenticato

(A) B                            (F#)G            A
Che senza l'aria e l'acqua il suo destino è già segnato



RIFF:

e|----------------------------------------------------|
B|----------------------------------------------------|
G|--4---7-6-4--------------4---7-6-4-7/9-7-6-7-6------|
D|------------7-5-4-5-7-5------------------------7----|
A|----------------------------------------------------|
E|----------------------------------------------------|
    B         G     E      B           D     E(VII)

e|----------------------------------------------------|
B|----------------------------------------------------|
G|--4---7-6-4--------------4---7-6-4-7/9-7-6-7\-------|
D|------------7-5-4-5-7-5-----------------------------|
A|----------------------------------------------------|
E|----------------------------------------------------|
    B         G     E      B           D     E(VII)



STROFA:

B                   (F#)G        (F#)E
Sfrutta la natura senza regole e lealtà

(A)B                   (F#)G          A
In nome del profitto tutto si avvelenerà

   B                     (F#)G     (F#)E
Convinti fino in fondo di avere la soluzione

(A)B                      (F#)G             A
Ma la nostra arroganza non ci salverà da un nuovo e lungo



RITORNELLO:

B                    G   E
Black Out Black Out

B                    G   E
Black Out Black Out

B                    G   E
Black Out Black Out

B                    (G)(F#)(G)(B)[A]  [E]
Black Out Black Out



STACCO:
B.. (A) B.. (A) B.. (A) B(palm muted)



STROFA:

(palm muted)

B                       (F#)G     (F#)E
L'equilibrio è fragile per la sopravvivenza

(A)B                       (F#)G       A
   Noi l'abbiam scordato pieni di supponenza

   B                     (F#)G    (F#)E
Ci crediamo invincibili e unici dominatori

(A)B                        (F#)G          A
Ma quando il mondo si ribella allora son dolori


(accordi normali)

B                  (F#)G      (F#)E
Terremoti ed eruzioni siccità ed esondazioni

(A)B                  (F#)G            A
   Gli uragani alimentati dai caldi monsoni

   B                        (F#)G     (F#)E
Di fronte a tutto questo quanto piccolo diventi

(A)B                      (F#)G              A
 E quindi sarà meglio che ti abitui ad affrontare un nuovo



ULTIMO RITORNELLO:

B                    G   E
Black Out Black Out

B                    G   E
Black Out Black Out

B                    G   E
Black Out Black Out

B                    (G)(F#)(G)(B)[A]  [E]  B..
Black Out Black Out
VIDEO

Se il video non dovesse essere più disponibile scrivi a indytab@googlemail.com. Grazie!
COMMENTA QUESTA TABLATURA
Devi avere JavaScript attivato per poter commentare! (misura antispam)