IndyTab Logo

BETA VERSION - 321 TABS DISPONIBILI

Cerca una tablatura nel nostro archivio:

Gruppo Canzone


Elenco dei gruppi presenti su IndyTab
Lista di tutte le tablature di IndyTab
DISCLAIMER
Questa tablatura rappresenta l'interpretazione della canzone da parte dell'autore. Può essere usata per scopi di studio, insegnamento e ricerca.

La tab è liberamente riproducibile in forum, blog, siti web (ad eccezione degli archivi di tablature online) e stampabile. Non è obbligatorio ma molto gradito citare la fonte (cioè IndyTab), meglio con un link di rimando al nostro sito.
ACCORDATORE
Per accordare la tua chitarra puoi usare il nostro accordatore online
TAB REQUEST
Stai cercando una tablatura? Suggeriscila compilando il modulo sottostante!

Gruppo
Titolo
Tua Mail

(la tua mail verrà usata per ricontattarti quando la tablatura sarà online)

Tsunami Bomb // Say It If You Mean It

Tablatura tratta dall'album: The Ultimate Escape

(clicca qui per la legenda)

(clicca qui per il video)

    B   A   D   G   E   E(0)
e|---------------------------|
B|---------------------------|
G|----------7-------9--------|
D|--9---7---7---5---9----2---|
A|--9---7---5---5---7----2---|
E|--7---5-------3--------0---|


--------------------------------------------------------------------------

RIFF1:
e|----------------------|
B|----------------------|
G|--|--p.m.-|-----------|
D|---7-7-5-5---4h5p4----|
A|----------------------|
E|----------------------|



INTRO (x2):

e|----------------------------------------------------|
B|----------------------------------------------------|
G|----------------------------------------------------|
D|---------------------7-7-7-7------------------------|
A|------------9-9-9-9-----------7-7-7-----------------|
E|----------------------------------------------------|
    [B] [B]                             D     A

e|----------------------------------------------------|
B|----------------------------------------------------|
G|----------------------------------------------------|
D|---------------------7-7-7-7------------------------|
A|------------9-9-9-9-----------7-7-7-----------------|
E|----------------------------------------------------|
    [B] [B]                             D   E  (E)(D)



VERSE 1:

(in p.m.)

B                           D           RIFF1             A
Don't walk on eggshells for me, I'm not as fragile as you think

A           G          A
Stop making your words fancy

B                     D            RIFF1    A
Why say I don't know HER, when you actually do?

            |---open chords---|
A            G        A      B
Just tell me what you really mean



CHORUS:

B         D          A 
   Really mean, when we're alone

G  A         B            D
   Why can't you tell the truth?

     A                G         A          [B][B]
When we're alone, you know what you should do



Repeat INTRO X1



VERSE 2:

(in p.m.)

B           D         RIFF1          A
Avoid reality, as you dig yourself a hole

A       G     A
Excuses are pathetic

B              D              RIFF1          A
Why say I apologize, when you don't regret a thing

            |---open chords---|
A            G        A      B
Just tell me what you really mean



CHORUS:

B         D         A 
   Really mean, You say these words

G  A          B             D
   Why should I put up with lies?

    A                        G              A      
You say these words when you know that they are untrue



BRIDGE:

[G][G]  XX  [G][G]   XX  
[D][D]  XX  [D][D]   XX  
[A][A]  XX  [A][A]   XX 
[B][B]  XX  [A][A][A]  


(play more times every note)
e|------------------------------------------|
B|---7-------------5---7-------------5------|
G|------------------------------------------|
D|---4-------------2---4-------------2------|
A|------------------------------------------|
E|------------------------------------------|


(in p.m.)

B  D          A          E(0)        D        B
Mean what you say 'cause no one will take the blame

B  D       A             E(0)   D      B
Mean those words, the responsibility's yours

B  D          A          E(0)        D        B
Mean what you say 'cause no one will take the blame

B  D       A      [E(0)][E(0)]  [D][D]      
Mean those words



VERSE 3:

B                           D                             A
Don't walk on eggshells for me, I'm not as fragile as you think

A           G          A
Stop making your words fancy

B                     D                     A
Why say I don't know HER, when you actually do?
           
A            G        A      B
Just tell me what you really mean



FINAL CHORUS:

B         D          A 
   Really mean, when we're alone

G  A         B            D
   Why can't you tell the truth?

     A                G         A          B
When we're alone, you know what you should do

(A)        B       D
Why should I, apologize?

    A                        G              A       B
You say these words when you know that they are untrue

(A)       B            D
Why can't you tell the truth?

     A                G         A          [G][G]
When we're alone, you know what you should do



OUTRO:

G(p.m.) G G/\

[G][G] XX [D][D] XX [B][B] XX [B][B]

[G][G] XX [D][D] XX  B\
VIDEO

Se il video non dovesse essere più disponibile scrivi a indytab@googlemail.com. Grazie!
COMMENTA QUESTA TABLATURA
Devi avere JavaScript attivato per poter commentare! (misura antispam)