IndyTab Logo

BETA VERSION - 321 TABS DISPONIBILI

Cerca una tablatura nel nostro archivio:

Gruppo Canzone


Elenco dei gruppi presenti su IndyTab
Lista di tutte le tablature di IndyTab
DISCLAIMER
Questa tablatura rappresenta l'interpretazione della canzone da parte dell'autore. Può essere usata per scopi di studio, insegnamento e ricerca.

La tab è liberamente riproducibile in forum, blog, siti web (ad eccezione degli archivi di tablature online) e stampabile. Non è obbligatorio ma molto gradito citare la fonte (cioè IndyTab), meglio con un link di rimando al nostro sito.
ACCORDATORE
Per accordare la tua chitarra puoi usare il nostro accordatore online
TAB REQUEST
Stai cercando una tablatura? Suggeriscila compilando il modulo sottostante!

Gruppo
Titolo
Tua Mail

(la tua mail verrà usata per ricontattarti quando la tablatura sarà online)
DELLO STESSO GRUPPO

Cattive Abitudini // Se Tutti Mollano

Tablatura tratta dall'album: Cosa Sei Disposto A Perdere

(clicca qui per la legenda)

(clicca qui per il video)

    E  D  C  G(X)  G  E(0)
e|-------------------------------|
B|-------------------------------|
G|--9--7--5--12------------------|
D|--9--7--5--12----5---2---------|
A|--7--5--3--10----5---2---------|
E|-----------------3---0---------|


--------------------------------------------------------------------------


INTRO:
E.. (D) (G(X))
G (C)(D)E (E)(D)C (D)(C) G(p.m.)
G (C)(D)E (E)(D)C (D)(C) G(p.m.)



STROFA:

G(p.m.)               D(p.m.)
Eravamo in quattro al New Age

C(p.m.)         E(p.m.) D(p.m.)       G(p.m.)
a saltare sulle note di Don't call me white

                    D(p.m.)
anni d'oro giù al Carosseria

C(p.m.)              [E] [D]
e una febbre che non va  via



PONTE:
e|--------------------------------------------------|
B|--------------------------------------------------|
G|---------------------------------7--9-11-12-------|
D|--------------------------------------------------|
A|---------------------------------5--7--9-10-------|
E|--------------------------------------------------|
   E(0)    C          G            D
   ed è la musica che vive dentro sè

E(0)         C
c'è un tuffo verso un mare

e|-------------------------------------------|
B|-------------------------------------------|
G|-------------------------------------------|
D|----------------7---7-----7---7---7---7----|
A|------------5-5---5---5-5---5---5---5------|<-questa corda in p.m.
E|-------------------------------------------|
   G          D
di mani sotto me



RITORNELLO:

G(X)     D    E           C
spaccare sai, non voglio compromessi

G(X)     D          [E][E][E] [C][C][C]
se tutti mollano io no

G(X)       D  E        C
è tempo ormai di ritornare forti

G(X)     D          [E][E][E] [C][C][C]
se tutti mollano io no



STACCO:
G (C)(D)E (E)(D)C (D)(C) G(p.m.)
G (C)(D)E (E)(D)C (D)(C) G(p.m.)



STROFA:

G(p.m.)            D(p.m.)
Eravamo in quattro con lo skate

e|--------------------------------------------|
B|--------------------------------------------|
G|--------------------------------------------|
D|---------------------9----------7-----------|
A|-----------------7-7---7----5-5---5---------|<-questa corda in p.m.
E|--------------------------------------------|
   C(p.m.)         E(p.m.)    D(p.m.) G(p.m.)
   coi colori sottomano a Treviso città

                    D(p.m.)
a suonare giù un periferia

C(p.m.)                [E] [D]
e a un ricordo che non va  via



PONTE:
Ripetere il primo ponte.



RITORNELLO FINALE:

G(X)     D    E           C
spaccare sai, non voglio compromessi

G(X)     D          E  C
se tutti mollano io no

G(X)       D  E        C
è tempo ormai di ritornare forti

G(X)     D          E  C
se tutti mollano io no

G(X)     D          [E][E][E] [C][C][C]
se tutti mollano io no

G(X)     D          [E][E][E] [C][C][C]
se tutti mollano io no

D + D(p.m.) G.. [G]
VIDEO

Se il video non dovesse essere più disponibile scrivi a indytab@googlemail.com. Grazie!
COMMENTA QUESTA TABLATURA
Devi avere JavaScript attivato per poter commentare! (misura antispam)