IndyTab Logo

BETA VERSION - 321 TABS DISPONIBILI

Cerca una tablatura nel nostro archivio:

Gruppo Canzone


Elenco dei gruppi presenti su IndyTab
Lista di tutte le tablature di IndyTab
DISCLAIMER
Questa tablatura rappresenta l'interpretazione della canzone da parte dell'autore. Pu essere usata per scopi di studio, insegnamento e ricerca.

La tab liberamente riproducibile in forum, blog, siti web (ad eccezione degli archivi di tablature online) e stampabile. Non obbligatorio ma molto gradito citare la fonte (cio IndyTab), meglio con un link di rimando al nostro sito.
ACCORDATORE
Per accordare la tua chitarra puoi usare il nostro accordatore online
TAB REQUEST
Stai cercando una tablatura? Suggeriscila compilando il modulo sottostante!

Gruppo
Titolo
Tua Mail

(la tua mail verr usata per ricontattarti quando la tablatura sar online)
DELLO STESSO GRUPPO

Porno Riviste // Gli Ultimi Secondi

Tablatura tratta dall'album: Cosa Facciamo?

(clicca qui per la legenda)

     Bb   Eb   G    F    F(I)  
e|----------------------------|
B|----------------------------|
G|--------8---------10--------|
D|---8----8----5----10----3---|
A|---8----6----5----8-----3---|
E|---6---------3----------1---|


--------------------------------------------------------------------------


INTRO (2x):

Bb  (Eb) (G) (F(I)) (G)
Bb  Eb  F 


STROFA:

Bb             Eb 
Io non sto pi comodo 

G                   F 
so che il tempo non c' 

Bb           Eb 
tutti quanti fuggono 

G               F 
non capisco cos' 

Bb                Eb 
niente ha senso e tu lo sai 

G                   F 
quando il tempo non c' 

Bb            Eb 
supplichi i minuti ma 

G               F 
c' chi dice soltanto 


PONTE:

   G  
ma dai 

                   Bb 
lo sapevi e gi lo sai 

                   Eb 
tutto quanto  gi passato 

                   F 
ogni cosa  gi vissuta 

             G  
saluta e poi vai 

                   Bb 
tu di tempo non ne hai 

                  Eb  
sono gli ultimi secondi 

                       F 
c' chi sale e c' chi scende 


e chi affoga e poi 


RITORNELLO:

Bb               G  
chi saluta e chi va

Eb            F 
tutto molto veloce 

Bb                 G  
chi comincia e chi poi

Eb             F 
dopo un anno finisce 

Bb             G  
non ti bastano pi

Eb             F 
le stagioni svaniscono 

Bb             G  
non ti passano pi

Eb                  F 
stai sudando ma  inutile 


STACCO:
Bb  (Eb) (G) (F(I)) (G)
Bb  Eb  F 
Bb  (Eb) (G) (F(I)) (G)
Bb  [Eb] [F]


SOLO:
e|-------------------------------------------------------|
B|-------------------------------------------------------|
G|--10---------------------------------------------------|
D|-----10h11p10-11-10-8-8-----8-8-8-8-10-12-10--------8--|
A|-------------------------10-------------------8-10-----|
E|-------------------------------------------------------|

e|-------------------------------------------------------|
B|-------------------------------------------------------|
G|--10---------------------------------------------------|
D|-----10h11p10-11-10-8-8-----8-8-8-8-10-12-10--8--7-----|
A|-------------------------10----------------------------|
E|-------------------------------------------------------|
Tutto 2 volte, accordi: Bb  Eb  G  F 


PONTE:

   G  
ma dai 

                   Bb 
lo sapevi e gi lo sai 
 
                    Eb 
qui ogni cosa si consuma 

                   F 
nell'attesa ognuno fuma 

             G  
saluta e poi va 

                Bb 
ma la meta dove sta 

                   Eb 
non c' calma ne pazienza 

                  F 
ma una data di scadenza 


comanda su 


RITORNELLO:
(ripetere ritornello)


PONTE FINALE:
(in palm muted)

G  
dai 

                   Bb 
lo sapevi e gi lo sai 

                   Eb 
tutto quanto  gi passato 

                   F 
ogni cosa  gi vissuta 

             G  
saluta e poi vai 

                   Bb 
tu di tempo non ne hai 

                  Eb  
sono gli ultimi secondi 

                       F 
c' chi sale e c' chi scende 

                 G..
e chi affoga nei guai
COMMENTA QUESTA TABLATURA
Devi avere JavaScript attivato per poter commentare! (misura antispam)