IndyTab Logo

BETA VERSION - 321 TABS DISPONIBILI

Cerca una tablatura nel nostro archivio:

Gruppo Canzone


Elenco dei gruppi presenti su IndyTab
Lista di tutte le tablature di IndyTab
DISCLAIMER
Questa tablatura rappresenta l'interpretazione della canzone da parte dell'autore. Può essere usata per scopi di studio, insegnamento e ricerca.

La tab è liberamente riproducibile in forum, blog, siti web (ad eccezione degli archivi di tablature online) e stampabile. Non è obbligatorio ma molto gradito citare la fonte (cioè IndyTab), meglio con un link di rimando al nostro sito.
ACCORDATORE
Per accordare la tua chitarra puoi usare il nostro accordatore online
TAB REQUEST
Stai cercando una tablatura? Suggeriscila compilando il modulo sottostante!

Gruppo
Titolo
Tua Mail

(la tua mail verrà usata per ricontattarti quando la tablatura sarà online)
DELLO STESSO GRUPPO

Porno Riviste // 1 Di Voi

Tablatura tratta dall'album: La Seconda Possibilità

(clicca qui per la legenda)

(clicca qui per il video)

     B   A   G   E   F#
e|------------------------|
B|------------------------|
G|------------------------|
D|---9---7---5---2---4----|
A|---9---7---5---2---4----|
E|---7---5---3---0---2----|


--------------------------------------------------------------------------


INTRO:

[B][B][B][B][B]   [B][B][B][B][B]



STROFA 1:

B        A           G             A
Dalla cantina di una casa chiedo aiuto

B         A            G               A
sento che chiama le mi vuole nel suo imbuto

B         A             G          A
quando cammino c'ho qualcosa nella testa

B        A               G           A
E più si scappa più è la festa della bestia, bestia, bestia uguale



STROFA 2:

(p.m. continuo)
B        A               G             A
uguale a voi che mi dite tutto è già deciso

(una chitarra in p.m. accentuando le pennate)
B          A              G              A
più di una volta mi ha colpito e quasi ucciso.



PRE-RITORNELLO:

B     A     G      A                  E
Vieni bello gioca, stai un minuto con me

E     F#    G          A..
Vieni bello gioca ma almeno fino adesso non mi avete fatto niente

[A]A..                      [A][A][A][A]
almeno fino adesso non sono diventato



RITONELLO:

G     A  B                     G     A  B(p.m.)
Uoohoho, veleno con due zampe, Uoohoho, 1 di voi 1 di voi

G     A  B                     G    [A]  
Uoohoho, veleno con due zampe, Uoohoho.



STROFA 2:

e|----------------------------------------------------------|
B|--------------------------------------7-------------7-----|
G|--7--6--7------------------------7-7-----7----7-----------|
D|----------------------------------------------------------|
A|----------------------------------------------------------|
E|----------------------------------------------------------|
    B      A                   G        A             G  
    L'umanità è una vecchia puzzona con un santino in mano

e|--------------------------------------------------|
B|-------------------------------------------7------|
G|--7----7-7-----6------7---------------7-7---------|
D|--------------------------------------------------|
A|--------------------------------------------------|
E|--------------------------------------------------|
           A            G         A          B
    emette suoni con la bocca, consuma gas metano

e|----------------------------------------------|
B|-----------7----------------------------------|
G|--7--7-----------7------7---7------6----7-----|
D|----------------------------------------------|
A|----------------------------------------------|
E|----------------------------------------------|
             A              G             A
    e più combatto più mi annulla in ogni cosa

e|---------------------------------------------------------------------|
B|-----------7---------------7-----------------------------------------|
G|--7--7----------7----7---------7----7-7---6----7---------------------|
D|---------------------------------------------------------------------|
A|---------------------------------------------------------------------|
E|---------------------------------------------------------------------|
    B        A               G           A
    e più mi sbatto più è la festa della bestia, bestia, bestia uguale



PRE-RITORNELLO: 

B     A     G      A                  E
Vieni bello gioca, stai un minuto con me

E     F#    G          A..
Vieni bello gioca ma almeno fino adesso non mi avete fatto niente

(A)A..                 [A][A][A][A]
almeno fino adesso non sono diventato



RITORNELLO FINALE:

G     A  B                     G     A  B(p.m.)
Uoohoho, veleno con due zampe, Uoohoho, 1 di voi 1 di voi

G     A  B                     G     A  [B][B][B][B][B]  [B][B][B][B][B]
Uoohoho, veleno con due zampe, Uoohoho, 1 di voi         1 di voi
VIDEO

Se il video non dovesse essere più disponibile scrivi a indytab@googlemail.com. Grazie!
COMMENTA QUESTA TABLATURA
Devi avere JavaScript attivato per poter commentare! (misura antispam)