IndyTab Logo

BETA VERSION - 321 TABS DISPONIBILI

Cerca una tablatura nel nostro archivio:

Gruppo Canzone


Elenco dei gruppi presenti su IndyTab
Lista di tutte le tablature di IndyTab
DISCLAIMER
Questa tablatura rappresenta l'interpretazione della canzone da parte dell'autore. Può essere usata per scopi di studio, insegnamento e ricerca.

La tab è liberamente riproducibile in forum, blog, siti web (ad eccezione degli archivi di tablature online) e stampabile. Non è obbligatorio ma molto gradito citare la fonte (cioè IndyTab), meglio con un link di rimando al nostro sito.
ACCORDATORE
Per accordare la tua chitarra puoi usare il nostro accordatore online
TAB REQUEST
Stai cercando una tablatura? Suggeriscila compilando il modulo sottostante!

Gruppo
Titolo
Tua Mail

(la tua mail verrà usata per ricontattarti quando la tablatura sarà online)
DELLO STESSO GRUPPO

Los Fabulosos Cadillacs // Yo Te Avisé!!

Tablatura tratta dall'album: Yo Te Avisé!!

(clicca qui per la legenda)

(clicca qui per il video)

     E    A    B
e|---7----5----7-----|
B|---9----5----7-----|
G|---9----6----8-----|
D|--(9)--(7)--(9)----|
A|--(7)--(7)--(9)----|
E|-------(5)--(7)----|


--------------------------------------------------------------------------


INTRO:

E  A B    x8



ESTROFA 1:

E          A   B             E       A           B
Yo te avisé, y vos no me escuchaste, No-no-no-no-no-no

E          A   B           E              A  B
Yo te avisé, y vos no me dejaste convencerte

   E             A    B            E     A  B
Conmigo no hablás, yo no soy de tu clase

   E             A        B              E     [A][A][B] [B]
Conmigo no bailás, porque yo bailo en la calle

  E   A    B              E        A  B         
Pelado, sé que soy un pelado bocón 

  E   A    B              E        A  B         
Pelado, sé que soy un pelado bocón 



E  A B    x8



ESTROFA 2:

E          A   B             E       A           B
Yo te avisé, y vos no me escuchaste, No-no-no-no-no-no

E          A   B           E              A  B
Yo te avisé, y vos no me dejaste convencerte

   E             A    B            E     A  B
Conmigo no hablás, yo no soy de tu clase

   E             A        B              E     [A][A][B] [B]
Conmigo no bailás, porque yo bailo en la calle

  E   A    B              E        A  B         
Pelado, sé que soy un pelado bocón 

  E   A    B              E        [A][A][B] [B]        
Pelado, sé que soy un pelado bocón 



e|-----------------------------------------------|
B|-----------------------------------------------|
G|---9-----7----9----7------9-----7--------------|
D|--------------------------------------9--------|
A|-----------------------------------------------|
E|-----------------------------------------------|
     E
   Y si volvés a casa no me pidas por favor

e|-----------------------------------------------|
B|-----------------------------------------------|
G|---9-----7-----9-------7-----9------7--7-7--7--|
D|-----------------------------------------------|
A|-----------------------------------------------|
E|-----------------------------------------------|
     E
  El río esta creciendo, no me pidas, no

e|-----------------------------------------------|
B|-----------------------------------------------|
G|---9-----7----9----7------9-----7--------------|
D|--------------------------------------9--------|
A|-----------------------------------------------|
E|-----------------------------------------------|
     E
   Y si volvés a casa no me pidas por favor

e|-----------------------------------------------|
B|-----------------------------------------------|
G|---9------7----9----7-----9------7--7-7--7-----|
D|-----------------------------------------------|
A|-----------------------------------------------|
E|-----------------------------------------------|
     E
  El río se hace tuyo no me pidas, no

e|-----------------------------------------------|
B|---7-----------------------7---7---7-----------|
G|---9b---------------------b11-b11-b11----------|
D|-----------------------------------------------|
A|-----------------------------------------------|
E|-----------------------------------------------|
     E
   Y si volvés a casa no me pidas por favor

e|-----------------------------------------------|
B|---7-------------------------------------------|
G|---11r9----------------------------------------|
D|-----------------------------------------------|
A|-----------------------------------------------|
E|-----------------------------------------------|
     E
   Sigo estando borracho no me pidas, no



E  A B    x4



ESTROFA 3:

  E   A    B              E        A  B         
Pelado, sé que soy un pelado bocón 

  E   A    B              E        A  B         
Pelado, sé que soy un pelado bocón 

  E   A    B              E        A  B         
Pelado, sé que soy un pelado bocón 

  E   A    B              E        A  B         
Pelado, sé que soy un pelado bocón 



OUTRO:

(tocar los acordes a golpes)

E   A  B
E   [A][A][A] [B][B][B]  E..
VIDEO

Se il video non dovesse essere più disponibile scrivi a indytab@googlemail.com. Grazie!
COMMENTA QUESTA TABLATURA
Devi avere JavaScript attivato per poter commentare! (misura antispam)