IndyTab Logo

BETA VERSION - 321 TABS DISPONIBILI

Cerca una tablatura nel nostro archivio:

Gruppo Canzone


Elenco dei gruppi presenti su IndyTab
Lista di tutte le tablature di IndyTab
DISCLAIMER
Questa tablatura rappresenta l'interpretazione della canzone da parte dell'autore. Può essere usata per scopi di studio, insegnamento e ricerca.

La tab è liberamente riproducibile in forum, blog, siti web (ad eccezione degli archivi di tablature online) e stampabile. Non è obbligatorio ma molto gradito citare la fonte (cioè IndyTab), meglio con un link di rimando al nostro sito.
ACCORDATORE
Per accordare la tua chitarra puoi usare il nostro accordatore online
TAB REQUEST
Stai cercando una tablatura? Suggeriscila compilando il modulo sottostante!

Gruppo
Titolo
Tua Mail

(la tua mail verrà usata per ricontattarti quando la tablatura sarà online)
DELLO STESSO GRUPPO

Moravagine // Indietro

Tablatura tratta dall'album: Per Non Crescere

(clicca qui per la legenda)

(clicca qui per il video)

     G    Em      G   C   D   B
e|---3----7---|--------------------|
B|---3----8---|--------------------|
G|---4----9---|-------5---7---4----|
D|--(5)--(9)--|---5---5---7---4----|
A|--(5)--(7)--|---5---3---5---2----|
E|--(3)-------|---3----------------|
  Accordi ska   Accordi distorti

--------------------------------------------------------------------------

ACCORDATURA:
Chitarra accordata mezzo tono più bassa

--------------------------------------------------------------------------

(*: note suonate in armonico naturale)



INTRO:
(accordi distorti)

e|----------------------------------------------------------|
B|----------------------------------------------------------|
G|-----------------------5*---------------------------------|
D|--------------------5*----5*------------------------------|  (X2)
A|-------------------------------------------------3-5-3----|
E|-------------------------------------------------------5--|
   G(p.m.)   [C][C]              D(p.m.)   [C][C]


G(p.m.)  [C][C]  [C][C]  D(p.m.)   [C][C]  [C][C]  (X2)



STROFA 1:
(S: accordi con ritmo ska, P: accordi punk distorti)

G(S)                         D(P) 
Se riguardo indietro sai che c'è tutto è cambiato 

Em(S)         C(P)  D(P)
e lo sappiamo che così va il mondo

   G(S)                     D(P) 
Piccolo Mike adesso è di un dj, ci stiamo male

    Em(S)                 C(P)        D(P)
non dovevamo farlo andare via, via da qui, ma ormai è il passato



PRE-RITORNELLO:
(accordi distorti)

    G                        D 
E infine a tutti quelli come noi sfigati al bando 

e|-------------------|                      |------------|
B|-------------------|(ripetere più volte   |------------|
G|---9-----------12--| le ottave)           |------5*----|
D|-------------------|                      |---5*-------| 
A|---7-----------10--|                      |------------|
E|-------------------|                      |------------|
                           C(p.m.) (B)[C]
   e poi figli polacchi ed oi

      G                     D 
Il consiglio è di fare come noi, andare avanti 

e|---------------------|                     
B|---------------------| (ripetere più volte                    
G|---9-------------12--|  le ottave)                      
D|---------------------|                    
A|---7-------------10--|                     
E|---------------------|   
                           C       D                
   e poi un taglio netto e vai, cambiare tutto



RITORNELLO:
(S: accordi con ritmo ska, P: accordi punk distorti)

G(S)   D(P)   Em(S)   C(P)    D(P)
                         ..io non ci riesco

G(S)   D(P)   Em(S)   C(P)   D(P)
                         ..e resto indietro 


CORO:
(accordi distorti)

e|---------------------|    
B|---------------------| (ripetere più volte   
G|--------------9--12--|  le ottave)  
D|---------------------|     
A|--------------7--10--|      
E|---------------------|    
   G      D           C   D
   uoooo eoooo eoooo eooooooooo

e|---------------------|                       
B|---------------------| (ripetere più volte    
G|--------------9--12--|  le ottave)           
D|---------------------|                     
A|--------------7--10--|                        
E|---------------------|                       
   G      D           C.. D..  [G]
   uoooo eoooo eoooo eooooooooo


OUTRO:

e|------------|
B|------------|
G|---5*-------|
D|------5*----|
A|------------|
E|------------|
VIDEO

Se il video non dovesse essere più disponibile scrivi a indytab@googlemail.com. Grazie!
COMMENTA QUESTA TABLATURA
Devi avere JavaScript attivato per poter commentare! (misura antispam)