IndyTab Logo

BETA VERSION - 321 TABS DISPONIBILI

Cerca una tablatura nel nostro archivio:

Gruppo Canzone


Elenco dei gruppi presenti su IndyTab
Lista di tutte le tablature di IndyTab
DISCLAIMER
Questa tablatura rappresenta l'interpretazione della canzone da parte dell'autore. Può essere usata per scopi di studio, insegnamento e ricerca.

La tab è liberamente riproducibile in forum, blog, siti web (ad eccezione degli archivi di tablature online) e stampabile. Non è obbligatorio ma molto gradito citare la fonte (cioè IndyTab), meglio con un link di rimando al nostro sito.
ACCORDATORE
Per accordare la tua chitarra puoi usare il nostro accordatore online
TAB REQUEST
Stai cercando una tablatura? Suggeriscila compilando il modulo sottostante!

Gruppo
Titolo
Tua Mail

(la tua mail verrà usata per ricontattarti quando la tablatura sarà online)
DELLO STESSO GRUPPO

Los Fastidios // Rabbia Dentro Il Cuore

Tablatura tratta dall'album: Guardo Avanti

(clicca qui per la legenda)

(clicca qui per il video)

     C   A   F   F#   G
e|-------------------------|
B|-------------------------|
G|---5---------------------|
D|---5---7---3---4----5----|
A|---3---7---3---4----5----|
E|-------5---1---2----3----|


--------------------------------------------------------------------------


INTRO:
       
e|-----------------------------------------------------|
B|-----------------------------------------------------|
G|-----------------------------------------------------| (X2)
D|--10-10--10-10-10-10--9-10-9--7-7--7-7-7-7------7-9--|  
A|---------------------------------------------10------|
E|-----------------------------------------------------|
    C                           A   


STROFA 1:
(una chitarra aperta, l'altra in p.m.)

C
 Quante volte rivedrò

A 
 le scene di quei giorni

C 
 Quante volte sentirò

A 
 le sirene attorno a me



PRE-RITORNELLO:

F 
 Barricate nelle strade

(F#) G 
       rabbia dentro il cuore



STROFA 2: 
(una chitarra aperta, l'altra in p.m.)

C
 Quante volte rivedrò

A 
 quel sangue sull'asfalto

C 
 Quante volte sentirò

A 
 le loro danze di guerra
 


PRE-RITORNELLO:

F                      G
 Divise blu che avvanzano

G 
 rabbia dentro il cuore



RITORNELLO:
 
C 
 Mille pugni al cielo

                A 
 Mille pugni al cielo

 
 Mille pugni al cielo

     C 
 per te!
 
C 
 Mille pugni al cielo

                A
 Mille pugni al cielo

 
 Mille pugni al cielo

     C
 per te!



STACCO:
 
e|------------------------------------------------------|
B|------------------------------------------------------| (X2)
G|------------------------------------------------------| 
D|---10-10--10-10-10-10--9-10-9--7-7--7-7-7-7------7-9--|  
A|----------------------------------------------10------|
E|------------------------------------------------------|
     C                           A   
 per te!                     per te!



STROFA 3: 
(una chitarra aperta, l'altra in p.m.)

C 
 Quante volte rivedrò

A 
 le scene di quei giorni

C 
 Quante volte sentirò

A 
 le sirene attorno a me



PRE-RITORNELLO:

F
 Barricate nelle strade

(F#) G 
       rabbia dentro il cuore


 
RITORNELLO: come sopra



STACCO: come sopra



SOLO:

e|---------------------------------------------------------------------|
B|---------------------------------------------------------------------|
G|---------------------------------------------------------------------| 
D|-10-10--9-9--10---9-10-12-10-9-----10-10--9-9--10---9-10-12-10-9-----|  
A|-------------------------------10--------------------------------10--|
E|---------------------------------------------------------------------|
   C(p.m.)                           A(p.m.) 

e|---------------------------------------------------------------------|
B|---------------------------------------------------------------------|
G|---------------------------------------------------------------------| 
D|-10-10--9-9--10---9-10-12-10-9---------------------------------------|  
A|-------------------------------10-12-12--10-10-10--12--12-12--10-12--|
E|---------------------------------------------------------------------|
   C(p.m.)                          A(p.m.) 
 
e|---------------------------------------------------------------------|
B|---------------------------------------------------------------------|
G|---------------------------------------------------------------------|
D|--------------------------7------------7---10-9-10-------------------|
A|-10--8-8-7---10--8-8-7-------10-10-9---------------------------------|
E|---------------------------------------------------------------------|
   F                        G                     C..



STROFA 4:

e|--------------------------------------------|
B|--------------------------------------------|
G|--------------------------------------------|
D|---------------------------------3-5-3------|
A|-------------------------------3------------|
E|---------------------------------------5----|
  (C..)
        Quante volte rivedro

e|--------------------------------------------|
B|--------------------------------------------|
G|--------------------------------------------|
D|--------------------------------------------|
A|----------------------------------5-3-------|
E|------------------------------3-5-----------|
    quel sangue sull'asfalto

e|--------------------------------------------|
B|--------------------------------------------|
G|--------------------------------------------|
D|---------------------------------3-5-3------|
A|-------------------------------3------------|
E|---------------------------------------5----|
   Quante volte sentirò                     le loro danze di guerra
 


PRE-RITORNELLO:

F(p.m.)               G(p.m.)      
 Divise blu che avanzano 

       [G]
 rabbia dentro il cuore


 
RITORNELLO: come sopra
 

 
STACCO:

e|------------------------------------------------------|
B|------------------------------------------------------| 
G|------------------------------------------------------| 
D|---10-10--10-10-10-10--9-10-9--7-7--7-7-7-7------7-9--|  
A|----------------------------------------------10------|
E|------------------------------------------------------|
     C                           A   
 per te!                     per te!


e|------------------------------------------------------|
B|------------------------------------------------------| 
G|------------------------------------------------------| 
D|---10-10--10-10-10-10--9-10-9--7-7--7-7-7-7--7-7--7-7-|  
A|------------------------------------------------------|
E|------------------------------------------------------|
     C                           A   
 per te!                     per te!



PRE-RITORNELLO:
 
F
 Barricate nelle strade

(F#) G 
       rabbia dentro il cuore

 

RITORNELLO: come sopra (con il coro)



OUTRO:
 
e|-----------------------------------------------------|
B|-----------------------------------------------------|
G|-----------------------------------------------------| 
D|--10-10--10-10-10-10--9-10-9--7-7--7-7-7-7------7-9--|  
A|---------------------------------------------10------|
E|-----------------------------------------------------|
    C                           A   
per te!                     per te!

e|---------------------------------------------------------|
B|---------------------------------------------------------|
G|---------------------------------------------------------| 
D|--10-10--10-10-10-10--9-10-9--7-7--7-7-7-7------7-9------|  
A|---------------------------------------------10-----10---|
E|---------------------------------------------------------|
    C                           A                     C..
per te!                     per te!               per te!
VIDEO

Se il video non dovesse essere più disponibile scrivi a indytab@googlemail.com. Grazie!
COMMENTI
12/4/09 20:32, Daniele (mela):
Per Carlo Giuliani Sempre!!!!

COMMENTA QUESTA TABLATURA
Devi avere JavaScript attivato per poter commentare! (misura antispam)