IndyTab Logo

BETA VERSION - 321 TABS DISPONIBILI

Cerca una tablatura nel nostro archivio:

Gruppo Canzone


Elenco dei gruppi presenti su IndyTab
Lista di tutte le tablature di IndyTab
DISCLAIMER
Questa tablatura rappresenta l'interpretazione della canzone da parte dell'autore. Può essere usata per scopi di studio, insegnamento e ricerca.

La tab è liberamente riproducibile in forum, blog, siti web (ad eccezione degli archivi di tablature online) e stampabile. Non è obbligatorio ma molto gradito citare la fonte (cioè IndyTab), meglio con un link di rimando al nostro sito.
ACCORDATORE
Per accordare la tua chitarra puoi usare il nostro accordatore online
TAB REQUEST
Stai cercando una tablatura? Suggeriscila compilando il modulo sottostante!

Gruppo
Titolo
Tua Mail

(la tua mail verrà usata per ricontattarti quando la tablatura sarà online)

Talco // Tarantella Dell'Ultimo Bandito

Tablatura tratta dall'album: Mazel Tov

(clicca qui per la legenda)

(clicca qui per il video)

    C#m    A    B    E   F#m   G#m       G#  C#  A   E   B
e|---9-----5----7----7----9-----4----|------------------------|
B|---9-----5----7----9----10----4----|------------------------|
G|---9-----6----8----9----11----4----|-------6-----------4----|
D|--(11)--(7)--(9)--(9)--(11)--(6)---|---6---6---7---2---4----|
A|--(11)--(7)--(9)--(7)--(9)---(6)---|---6---4---7---2---2----|
E|--(9)---(5)--(7)-------------(4)---|---4-------5---0--------|
          Accordi ska                     Accordi distorti

--------------------------------------------------------------------------

ACCORDATURA:
Chitarra accordata un tono più bassa

--------------------------------------------------------------------------


INTRO:
(accordi distorti)

[G#] XX [G#] XX [G#][G#][G#][G#]


(arrangiamento per la parte dei fiati, x2)

e|-----------------------------------------------------|
B|-------------------------9-9-9-10-9--999-10-9-7------|
G|---6---6-8-9-8-6--------------------------------9-8--|
D|-----6-----------9-9---------------------------------|
A|-----------------------------------------------------|
E|-----------------------------------------------------|
     C#      A       E              G#

e|-----------------------------------------------------|
B|-----------------------------------------------------|
G|---6---6-8-9-8-6-------------------------------------|
D|-----6-----------9-9--------7--6---------------------|
A|-----------------------------------------------------|
E|-----------------------------------------------------|
     C#      A       E           G#



STROFA 1:
(ritmo ska)

         C#m+RIFF1    A
Tra nere piaghe nella vanità

       B              C#m
di una terra all'imbrunir

       C#m          A
con il sol che atterriva

     B           E
masticando l'avvenir

F#m+RIFF2     C#m 
Rino accese i suoi vent'anni

G#m           C#m
e un sentiero d'affamar

F#m         C#m
di racconti nelle valli

      A     B   [C#][G#][C#](distorti)
del bandito partigian


RIFF1:

e|---------------------------------------------------------|
B|---------------------------------------------------------|
G|---------------------------------------------------------|
D|----------------------7----------------------------------|
A|--------11\-------4-7---------6-6/9-------------11-------|
E|---9-12---------5-----------7-------11---9-9-12----9-----|

e|---------------------------------------------------------|
B|---------------------------------------------------------|
G|---------------------------------------------------------|
D|----------------------7-----------------/6-6-6-----------|
A|--------11\-------4-7---------6-9--------------5---------|
E|---9-12---------5-----------7-----7----------------------|


RIFF2:

e|-------------------9-9-9-------------------------------------|
B|------10----10-----9-9-9-------------9-11-9-------9-11b13----|
G|--/11----11--------------9------11p9---------11p9------------|
D|-------------------------------------------------------------|
A|-------------------------------------------------------------|
E|-------------------------------------------------------------|

e|-------------------9-9-9-------------------------------------|
B|------10----10-----9-9-9-------------9-11-9------------------|
G|--/11----11--------------9------11p9---------11--------------|
D|-------------------------------------------------------------|
A|-------------------------------------------------------------|
E|-------------------------------------------------------------|



STROFA 2:
(ritmo ska) 

             C#m+RIFF3    A
Poi venne il tempo di chi più non sa

      B            C#m
sulle spalle dell'oblio

    C#m         A
del circo della storia

    B           E
annegato al logorio

F#m+RIFF4    C#m
madre terra asciuga gli occhi

G#m        C#m
di chi seminò lontan

F#m        C#m
l'avvenire nei rintocchi

G#m+G#(distorto)
di un passato partigian


RIFF3:

e|---------------------------------------------------------|
B|---------------------------------------------------------|
G|---------------------------------------------------------|
D|----------------------7----------------------------------|
A|--------11\-------4-7---------6-6/9-------------11-------|
E|---9-12---------5-----------7-------11---9-9-12----9-----|

e|---------------------------------------------------------|
B|---------------------------------------------------------|
G|---------------------------------------------------------|
D|----------------------7---------9-------/6-6-6-----------|
A|--------11\-------4-7---------6---9------------5---------|
E|---9-12---------5-----------7----------------------------|


RIFF4:

e|-------------------9-9-9-------------------------------------|
B|------10----10-----9-9-9-------------9-11-9-------9-11b13----|
G|--/11----11--------------9------11p9---------11p9------------|
D|-------------------------------------------------------------|
A|-------------------------------------------------------------|
E|-------------------------------------------------------------|

e|-------------------9-9-9-------------------------------------|
B|------10----10-----9-9-9-------------------------------------|
G|--/11----11--------------9--------/13~--13~--13~-------------|
D|-------------------------------------------------------------|
A|-------------------------------------------------------------|
E|-------------------------------------------------------------|



PRE-RITORNELLO:
(accordi distorti)

A       E
Sul far dell'oblio

      B              C#
che ammalia il sonno da lontan

A              E
canto il tempo del brusio

    B                  C#
nel cuor di un vecchio partigian

A            E 
scalza età a rinnegar

B          C#
mendicante d'avvenir

           A                   E
nell'era negata di un suolo tradito

             G#
riaccendo la gloria della memoria con la tarantola dell'ultimo bandito



RITORNELLO:
(accordi distorti)

e|-----------------------------------------------------|
B|-------------------------9-9-9-10-9--999-10-9-7------|
G|---6---6-8-9-8-6--------------------------------9-8--|
D|-----6-----------9-9---------------------------------|
A|-----------------------------------------------------|
E|-----------------------------------------------------|
     C#      A       E              G#
                         Canto la tarantola dell'ultimo bandito

e|-----------------------------------------------------|
B|-----------------------------------------------------|
G|---6---6-8-9-8-6-------------------------------------|
D|-----6-----------9-9--------7--6---------------------|
A|-----------------------------------------------------|
E|-----------------------------------------------------|
     C#      A       E           G#



STACCO:
(ritmo ska, x2) 

C#m  A  E  G#m



STROFA3:
(ritmo ska)

F#m+RIFF4    C#m
madre terra asciuga gli occhi

G#m        C#m
di chi seminò lontan

F#m        C#m
l'avvenire nei rintocchi

G#m+G#(distorto)
di un passato partigian



PRE-RITORNELLO: come sopra.



OUTRO:
(accordi distorti)

(arrangiamento per il violino)

e|-----------------------------------------------------|
B|-------------------------9-9-9-10-9-9-9-10-9-7-------|
G|---6---6-8-9-8-6-9-----------------------------9-8---|
D|-----6-------------9---------------------------------|
A|-----------------------------------------------------|
E|-----------------------------------------------------|
     C#..    A..     E..            G#..

e|-----------------------------------------------------|
B|------------------------------/9~--------------------|
G|---6---6-8-9-8-6-9-----------------------------------|
D|-----6-------------9---------------------------------|
A|-----------------------------------------------------|
E|-----------------------------------------------------|
     C#..    A..     E..         G#..

e|--------------------------------16-16-16-17-16-16-16-17-16-14-------|
B|--14----14-16-17-16-14-17-------------------------------------17-16-|
G|-----13-------------------16----------------------------------------|
D|--------------------------------------------------------------------|
A|--------------------------------------------------------------------|
E|--------------------------------------------------------------------|
    C#          A           E                 G#

e|-----------------------------------------------------|
B|-----------------------------------------------------|
G|---6---6-8-9-8-6-9------------/9~--------------------|
D|-----6-------------9---------------------------------|
A|-----------------------------------------------------|
E|-----------------------------------------------------|
     C#      A       E           G#

e|--------------------------------16-16-16-17-16-16-16-17-16-14-------|
B|--14----14-16-17-16-14-17-------------------------------------17-16-|
G|-----13-------------------16----------------------------------------|
D|--------------------------------------------------------------------|
A|--------------------------------------------------------------------|
E|--------------------------------------------------------------------|
    C#          A           E                 G#

e|------------------------------------------/16--------|
B|------------------------------/9~------9-------------|
G|---6---6-8-9-8-6-9-----------------------------------|
D|-----6-------------9---------------------------------|
A|-----------------------------------------------------|
E|-----------------------------------------------------|
     C#      A       E           G#     (G#) C#..
VIDEO

Se il video non dovesse essere più disponibile scrivi a indytab@googlemail.com. Grazie!
COMMENTA QUESTA TABLATURA
Devi avere JavaScript attivato per poter commentare! (misura antispam)