IndyTab Logo

BETA VERSION - 321 TABS DISPONIBILI

Cerca una tablatura nel nostro archivio:

Gruppo Canzone


Elenco dei gruppi presenti su IndyTab
Lista di tutte le tablature di IndyTab
DISCLAIMER
Questa tablatura rappresenta l'interpretazione della canzone da parte dell'autore. Pu essere usata per scopi di studio, insegnamento e ricerca.

La tab liberamente riproducibile in forum, blog, siti web (ad eccezione degli archivi di tablature online) e stampabile. Non obbligatorio ma molto gradito citare la fonte (cio IndyTab), meglio con un link di rimando al nostro sito.
ACCORDATORE
Per accordare la tua chitarra puoi usare il nostro accordatore online
TAB REQUEST
Stai cercando una tablatura? Suggeriscila compilando il modulo sottostante!

Gruppo
Titolo
Tua Mail

(la tua mail verr usata per ricontattarti quando la tablatura sar online)
DELLO STESSO GRUPPO

Los Fabulosos Cadillacs // Yo Quiero Morirme Ac

Tablatura tratta dall'album: Bares Y Fondas

(clicca qui per la legenda)

(clicca qui per il video)

      C     F     G
e|----3-----1-----3------|
B|----5-----1-----3------|
G|----5-----2-----4------|
D|---(5)---(3)---(5)-----|
A|---(3)---(3)---(5)-----|
E|---------(1)---(3)-----|
     Acordes SKA

--------------------------------------------------------------------------


INTRO:

[C]  [F]  [C]  [G][G][G][G]


C    F             C    G
  La la la la la     la la      x2



ESTRIBILLO (x2):

C                   F
Que yo, que yo, que yo quiero morirme 

C                   G
que yo, que yo, que yo quiero morirme ac



ESTROFA (x2):

   C                      F
Yo tengo a mi mama, si yo tengo a mi papa, 

         C                G
pero quiero morir tocando SKA



SOLO:

e|----------3--3-----------3----------------1--------------3-----|
B|---5--5-5----------3--3-----3-----1--1-1-----1-----3--3--------|
G|---------------------------------------------------------------|
D|---------------------------------------------------------------|
A|---------------------------------------------------------------|
E|---------------------------------------------------------------|
 |                                                               |
e|---------------------------------------------------------------|
B|---------------------------------------------------------------|
G|---------------------------------------------------------------|
D|----------5--5-----------5----------------3--------------5-----|
A|---7--7-7----------5--5-----5-----3--3-3-----3-----5--5--------|
E|---------------------------------------------------------------|


e|----------3--3-3-----------3--------------1--------------3-----|
B|---5--5-5------------3--3-----3-----1--1-----1-----3--3--------|
G|---------------------------------------------------------------|
D|---------------------------------------------------------------|
A|---------------------------------------------------------------|
E|---------------------------------------------------------------|
 |                                                               |
e|---------------------------------------------------------------|
B|---------------------------------------------------------------|
G|---------------------------------------------------------------|
D|----------5--5-5-----------5--------------3--------------5-----|
A|---7--7-7------------5--5-----5-----3--3-----3-----5--5--5-----|
E|---------------------------------------------------------------|



CORO (toca solo el bajo): 

Oi!   Oi!   Oi! 


C    F             C    G
  La la la la la     la la      x2



ESTRIBILLO: repetir ESRIBILLO, siempre x2



ESTROFA: repetir ESTROFA, siempre x2



SOLO: repetir SOLO



CORO (toca solo el bajo): 

Oi!   Oi!   Oi! 



SOLO SAX:

C  F  C  G    x2



La la la la la     la la      x2

C    F             C    G
  La la la la la     la la      x2



OUTRO: 

Oi!   Oi!   Oi!   Oi!

                [C]
Oi!   Oi!   Oi!   

VIDEO

Se il video non dovesse essere pi disponibile scrivi a indytab@googlemail.com. Grazie!
COMMENTA QUESTA TABLATURA
Devi avere JavaScript attivato per poter commentare! (misura antispam)