IndyTab Logo

BETA VERSION - 321 TABS DISPONIBILI

Cerca una tablatura nel nostro archivio:

Gruppo Canzone


Elenco dei gruppi presenti su IndyTab
Lista di tutte le tablature di IndyTab
DISCLAIMER
Questa tablatura rappresenta l'interpretazione della canzone da parte dell'autore. Può essere usata per scopi di studio, insegnamento e ricerca.

La tab è liberamente riproducibile in forum, blog, siti web (ad eccezione degli archivi di tablature online) e stampabile. Non è obbligatorio ma molto gradito citare la fonte (cioè IndyTab), meglio con un link di rimando al nostro sito.
ACCORDATORE
Per accordare la tua chitarra puoi usare il nostro accordatore online
TAB REQUEST
Stai cercando una tablatura? Suggeriscila compilando il modulo sottostante!

Gruppo
Titolo
Tua Mail

(la tua mail verrà usata per ricontattarti quando la tablatura sarà online)
DELLO STESSO GRUPPO

Banda Bassotti // Luna Rossa

Tablatura tratta dall'album: Avanzo De Cantiere

(clicca qui per la legenda)

(clicca qui per il video)

     E   C   D
e|----------------|
B|----------------|
G|---9---5---7----|
D|---9---5---7----|
A|---7---3---5----|
E|----------------|


--------------------------------------------------------------------------


STROFA:
(accordi in minuscolo, suona solo il basso)

e
Il pomeriggio del 12 Dicembre

e 
in piazza del Duomo ce l'avete illuminato

e             c            d       e
ma in via del Corso non ci sono le luci

e                        d            e
per l'Autunno caldo il comune le ha levate

e
In piazza Fontana il traffico è animato

e
c'è il mercatino degli agricoltori

e        c       d             e
sull'autobus a Milano in poche ore

e                   d              e
la testa nel bavero del cappotto alzato


(una chitarra con pennate in p.m., l'altra con accordi aperti)

E(p.m.)      D              E  
Bisogna fare tutto molto in fretta

E(p.m.)         D              E
perché la banca chiude gli sportelli

E       C     D            E
oh come tutto vola così in fretta

E(p.m.)        D             E
risparmi gente tutto così in fretta



RITORNELLO:

E                  D          E
No, no, no, non si può più dormire

E                 D           E
la luna è rossa e rossa di violenza

E         C        D           E
bisogna piangere i sogni per capire

      E                  D            E
che l'unica giustizia borghese si è spenta



RIFF:
(entrambe le chitarre con pennate in p.m.)

e|--------------------------------------------------------------------|
B|---12-12-10----10--------------------12-10-12--12-12--10b12r10-8----|
G|-9----------12----12-11-12p11-9----9-----------------------------9--|
D|--------------------------------------------------------------------|
A|--------------------------------------------------------------------|
E|--------------------------------------------------------------------|
   E(p.m.)       D        E          E(p.m.)            D          E



STROFA:
(una chitarra con pennate in p.m., l'altra con accordi aperti)

E(p.m.)         D        E
scende Dicembre sopra la sera

E(p.m.)            D          E
sopra la gente che parla di Natale

E(p.m.)   C(p.m.) D(p.m.) E(p.m.)
se questa vita  avrà un futuro

E(p.m.)      D             E
metterò casa potrà anche andare

E(p.m.)              D         E
Dice la gente che in piazza Fontana

E(p.m.)           D      E
forse è scoppiata una caldaia

E(p.m.)  C(p.m.) D(p.m.) E(p.m.)
la nella piazza  16      morti

E(p.m.)     D       E
li benediva un cardinale



RITORNELLO:
Ripetere il ritornello.



RIFF:
Ripetere il RIFF.



STROFA:
(una chitarra con pennate in p.m., l'altra con accordi aperti)

E(p.m.)         D       E
Notti di sangue e di terrore

E(p.m.)          D         E
scendono a valle sul mio paese

E(p.m.)  C(p.m.) D(p.m.)     E(p.m.)
chi pagherà   le vittime innocenti?

E(p.m.)           D             E
chi darà vita a Pinelli il ferroviere

E(p.m.)         D        E
Ieri ho sognato il mio padrone

E(p.m.)        D       E
a una riunione confidenziale

E(p.m.)  C(p.m.) D(p.m.)     E(p.m.)
si son levati    tutti il cappello

E(p.m.)       D        E
prima di fare questo macello



RITORNELLO:
Ripetere il ritornello.



RIFF:
(entrambe le chitarre con pennate in p.m.)

e|--------------------------------------------------------------------|
B|---12-12-10----10--------------------12-10-12--12-12--10-12---------|
G|-9----------12----12-11-12p11-9----9------------------------12-12-9-|
D|--------------------------------------------------------------------|
A|--------------------------------------------------------------------|
E|--------------------------------------------------------------------|
   E(p.m.)       D        E          E(p.m.)            D           E



STROFA:
(una chitarra con pennate in p.m., l'altra con accordi aperti)

E(p.m.)            D       E(p.m.)
Sulla montagna dei martiri nostri

E(p.m.)           D           E
tanto giurando su Gramsci e Matteotti

E(p.m.) C(p.m.) D(p.m.)    E
sull'operaio  caduto in cantiere

E(p.m.)                D         E
su tutti i compagni in carcere sepolti

E(p.m.)            D          E
Come un vecchio discende il fascismo

E(p.m.)            D           E
succhia la vita ad ogni gioventù

   E(p.m.)        C(p.m.) D(p.m.)    E(p.m.)        
ma non sentite il grido   sulla barricata

E(p.m.)              D            E
la classe operaia continua la sua lotta



RITORNELLO:
Ripetere il ritornello due volte, la seconda volta
la chitarra solista suona anche il RIFF dell'OUTRO
insieme alla voce. 



OUTRO:
(una chitarra con pennate in p.m., l'altra con accordi aperti)

e|----------------------------------------------------------------------|
B|---12-12-10----10--------------------12-10-12--12-12--10-12-----------|
G|-9----------12----12-11-12p11-9----9------------------------12-12-9---|
D|----------------------------------------------------------------------|
A|----------------------------------------------------------------------|
E|----------------------------------------------------------------------|
   E(p.m.)       D        E          E(p.m.)            D           E

e|----12-10-12--12-12--10-12-10-----------------------------------------|
B|------------------------------13-12-------12-10-12--12-12-10b12-8-8---|
G|--9-------------------------------------9---------------------------9-|
D|----------------------------------------------------------------------|
A|----------------------------------------------------------------------|
E|----------------------------------------------------------------------|
    E(p.m.) C(p.m.)    D(p.m.)     E(p.m.)                  D         E..
VIDEO

Se il video non dovesse essere più disponibile scrivi a indytab@googlemail.com. Grazie!
COMMENTA QUESTA TABLATURA
Devi avere JavaScript attivato per poter commentare! (misura antispam)