IndyTab Logo

BETA VERSION - 321 TABS DISPONIBILI

Cerca una tablatura nel nostro archivio:

Gruppo Canzone


Elenco dei gruppi presenti su IndyTab
Lista di tutte le tablature di IndyTab
DISCLAIMER
Questa tablatura rappresenta l'interpretazione della canzone da parte dell'autore. Può essere usata per scopi di studio, insegnamento e ricerca.

La tab è liberamente riproducibile in forum, blog, siti web (ad eccezione degli archivi di tablature online) e stampabile. Non è obbligatorio ma molto gradito citare la fonte (cioè IndyTab), meglio con un link di rimando al nostro sito.
ACCORDATORE
Per accordare la tua chitarra puoi usare il nostro accordatore online
TAB REQUEST
Stai cercando una tablatura? Suggeriscila compilando il modulo sottostante!

Gruppo
Titolo
Tua Mail

(la tua mail verrà usata per ricontattarti quando la tablatura sarà online)
DELLO STESSO GRUPPO

Scacciapensieri // Fuori Dai Guai

Tablatura tratta dall'album: Libera La Mente

(clicca qui per la legenda)

     B  D  G  A
e|------------------|
B|------------------|
G|------7-----------|
D|---9--7--5--7-----|
A|---9--5--5--7-----|
E|---7-----3--5-----|


--------------------------------------------------------------------------


STROFA:
(accordi in palm muted)
e|--------------------------------------------------|
B|--------------------------------------------------|
G|--------------------------------------------------|
D|-9~----------------------12~---------7~-----------|
A|--------------------------------------------------|
E|--------------------------------------------------|
   B                       G           D
   Dentro questo labirinto troppa geometria

e|--------------------------------------------------|
B|--------------------------------------------------|
G|--------------------------------------------------|
D|-9~-------------------12~--------7~---------------|
A|--------------------------------------------------|
E|--------------------------------------------------|
   B                    G          D
   ho bisogno di curare questa malattia


(accordi normali)

A    
cambio faccia alle persone

G             D
ma tu non vai via

A
mi nascondo e tu mi trovi

  G              A
a nascondino nel tuo giardino



RITORNELLO:

B             G
se tu lo vuoi ce la farai

D                A
a tirarti sempre fuori dai guai

B             G
se tu lo vuoi ce la farai

D                A
a tirarti sempre fuori dai guai



STROFA:
(palm muted)

B                        G            D
non mi faccio calpestare dalla psichiatria

B                      G            D
un rimedio clinico che poi ti butta via

(accordi normali)

A
cambio faccia alle persone

G             D
ma tu non vai via

A
mi nascondo e tu mi trovi

  G              A
a nascondino nel tuo giardino



RITORNELLO:

B             G
se tu lo vuoi ce la farai

D                A
a tirarti sempre fuori dai guai

B             G
se tu lo vuoi ce la farai

D                A
a tirarti sempre fuori dai guai



PONTE:
(arpeggio con chitarra pulita, accordi di accompagnamento distorti)
e|------------------------------2------------------------------2-----|
B|------------0-------------------3-------------0----------------3---|
G|----------2-----------------------4---------2--------------------4-|
D|--------4---------------------------------4------------------------|
A|-------------------------------------------------------------------|
E|-------------------------------------------------------------------|
        B..                  G..          B..                G..
   perchè quando mi lasci da solo il buio sa che ho paura di te

e|------------------------------2--------2-----2-------2--2--2--2----|
B|---------------0----------------3-------------3-------3--3--3--3---|
G|-------------2--------------------4--------------------------------|
D|-----------4-------------------------------------------------------|
A|-------------------------------------------------------------------|
E|-------------------------------------------------------------------|
          B..                G..         D..           A(palm muted)
   la realtà non mi vuole aiutare ora so che tu mi prenderai



ULTIMO RITORNELLO:

B             G
se tu lo vuoi ce la farai

D                A
a tirarti sempre fuori dai guai

B             G
se tu lo vuoi ce la farai

D                A
a tirarti sempre fuori dai guai

B             G
se tu lo vuoi ce la farai

D                A
a tirarti sempre fuori dai guai

B             G
se tu lo vuoi ce la farai

D                A
a tirarti sempre fuori dai guai

    B..
per me
COMMENTA QUESTA TABLATURA
Devi avere JavaScript attivato per poter commentare! (misura antispam)