IndyTab Logo

BETA VERSION - 321 TABS DISPONIBILI

Cerca una tablatura nel nostro archivio:

Gruppo Canzone


Elenco dei gruppi presenti su IndyTab
Lista di tutte le tablature di IndyTab
DISCLAIMER
Questa tablatura rappresenta l'interpretazione della canzone da parte dell'autore. Pu essere usata per scopi di studio, insegnamento e ricerca.

La tab liberamente riproducibile in forum, blog, siti web (ad eccezione degli archivi di tablature online) e stampabile. Non obbligatorio ma molto gradito citare la fonte (cio IndyTab), meglio con un link di rimando al nostro sito.
ACCORDATORE
Per accordare la tua chitarra puoi usare il nostro accordatore online
TAB REQUEST
Stai cercando una tablatura? Suggeriscila compilando il modulo sottostante!

Gruppo
Titolo
Tua Mail

(la tua mail verr usata per ricontattarti quando la tablatura sar online)
DELLO STESSO GRUPPO

Porno Riviste // Tutto Uguale

Tablatura tratta dall'album: Fino Alla Fine

(clicca qui per la legenda)

     A    B    G     D    E    C 
e|-----------------------------------|
B|-----------------------------------|
G|-------------------7----9----5-----|
D|---7----9----5-----7----9----5-----|
A|---7----9----5-----5----7----3-----|
E|---5----7----3---------------------|


--------------------------------------------------------------------------


INTRO:

G  D  A  C  D 


STROFA:

G                        D 
 tutto uguale  tutto cos

A                      C       D 
Quando va bene pensalo bene ma bene ma

G                         D 
Comunque tutto quanto  cos

A                      C       D 
Quando va male pensalo male ma male ma

G..                    D 
Siccome tutto quanto  cos

A                            C            D 
Ho chiuso gli occhi ma non  andato via  andato via

G                      D 
Dovunque vado tanto lo so

A                      C           D 
Dovunque vado sono gi stato o non stato ma


RITORNELLO:

   G                   D                  C 
Ma poi intanto che sto qui e penso a cosa c'

                   D                   G  
O a ci che se n' andato e valuto cos'

                   D                       C 
Ma si mischiano le facce che spaccano i minuti

                 D 
Finch non so cos'


STROFA:

[G]
C' solo un posto dove non si va


Il posto  cupo e puzza di vomito vomito


Quando sto bene so io dov'


Quando sto male confondo i liquidi liquidi


RITORNELLO:

   G                   D                    C 
Ma poi intanto che sto qui e penso a cosa c'

                   D                   G  
O a ci che se n' andato e valuto cos'

                   D                      C 
Ma si mischiano le facce che spaccano i minuti

   C(p.m.)        D    [D]
Finch non so cos'


PONTE:

G  D  A  C  D 


SOLO:

e|----------------------------------------------------|
B|----------------------------------------------------|
G|--4-4-4-4-0-0-2-4-2----0-2-4-5-4-2-4-2-0-2h4-2-0-0--|
D|----------------------------------------------------|
A|----------------------------------------------------|
E|----------------------------------------------------|
    G               D   A            C        D               
                      
e|----------------------------------------------------|
B|----------------------------------------------------|
G|--4-4-4-4-0-0-2-4-7----0-2-4-5-4-2-4-2-0-2h4-2-0-0--|
D|----------------------------------------------------|
A|----------------------------------------------------|
E|----------------------------------------------------|
    G               D   A            C        D       

e|----------------------------------------------------|
B|----------------------------------------------------|
G|--4-4-4-4-0-0-2-4-7----0-2-4-5-4-2-4-2-0-2h4-2-0-0--|
D|----------------------------------------------------|
A|----------------------------------------------------|
E|----------------------------------------------------|
    G               D   A            C        D       
                     
e|----------------------------------------------------|
B|----------------------------------------------------|
G|--4-4-4-4-0-0-2-4-7----0-2-4-5-4-2-4-2-0-2h4-2-0-0--|
D|----------------------------------------------------|
A|----------------------------------------------------|
E|----------------------------------------------------|
    G               D   A            C        D   


RITORNELLO (l'altra chitarra suona il ritornello normalmente, come sopra):

   [G]      (A)  (B)  [D]     (E)  (D)   [C]
Ma poi intanto che sto qui e penso a cosa c'

      (D)  (C)     [D]       (E)  (D)  [G]
O a ci che se n' andato e valuto  cos'

          (A)  (B)  [D]      (E)  (D)   [C]
Ma si mischiano le facce che spaccano i minuti

    (D)  (C)     [D]    (E)  (D)  [G]
Finch non so cos'
COMMENTA QUESTA TABLATURA
Devi avere JavaScript attivato per poter commentare! (misura antispam)