IndyTab Logo

BETA VERSION - 321 TABS DISPONIBILI

Cerca una tablatura nel nostro archivio:

Gruppo Canzone


Elenco dei gruppi presenti su IndyTab
Lista di tutte le tablature di IndyTab
DISCLAIMER
Questa tablatura rappresenta l'interpretazione della canzone da parte dell'autore. Pu essere usata per scopi di studio, insegnamento e ricerca.

La tab liberamente riproducibile in forum, blog, siti web (ad eccezione degli archivi di tablature online) e stampabile. Non obbligatorio ma molto gradito citare la fonte (cio IndyTab), meglio con un link di rimando al nostro sito.
ACCORDATORE
Per accordare la tua chitarra puoi usare il nostro accordatore online
TAB REQUEST
Stai cercando una tablatura? Suggeriscila compilando il modulo sottostante!

Gruppo
Titolo
Tua Mail

(la tua mail verr usata per ricontattarti quando la tablatura sar online)
DELLO STESSO GRUPPO

Aprs La Classe // Lu Rusciu Te Lu Mare

Tablatura tratta dall'album: Aprs La Classe

(clicca qui per la legenda)

(clicca qui per il video)

     Dm   C    A#
e|---5----3----1------|
B|---6----5----3------|
G|---7----5----3------|
D|--(7)--(5)--(3)-----|
A|--(5)--(3)--(1)-----|
E|--------------------|


--------------------------------------------------------------------------


INTRO:

e|---0-------------------------------------------------------|
B|----3-------------------------3------------------3---------|
G|-----2------------------0-------0--------------0-----------|
D|------0-------3-3-3-3-2-------------1h2-2-0--------0-------|
A|-------0------------------------------------3--------------|
E|-----------------------------------------------------------|


e|--------------------------------------------------|
B|---------------------3------------------3---------|
G|---------------0-------0--------------0-----------| x2
D|---2h3-3-3-3-2-------------1h2-2-0--------0-------| 
A|-----------------------------------3--------------|
E|--------------------------------------------------|


e|--------------------------------------------------|
B|---------------------3----------------------------|
G|---------------0-------0--------------------------| 
D|---2h3-3-3-3-2-------------1h2-2-0----------------| 
A|-----------------------------------3--------------|
E|--------------------------------------------------|

(pennata raggae)

Dm C  X2


(tutto il resto della canzone con pennata raggae)


STROFA 1:

Dm            C           Dm         
Na sira j passai te le patule

             C            Dm   
E ntisi le ranocchiule cantare

             C            Dm   
E ntisi le ranocchiule cantare



STACCO:

Dm C A# C Dm C



STROFA 2:

Dm           C              Dm 
Comu cantanu bbelle a una a una

           C                  Dm    
Ca me pariane lu rusciu te lu mare

           C                  Dm    
Ca me pariane lu rusciu te lu mare



STACCO:

Dm C  X2



STROFA 3:

Dm              C           Dm   
Lu rusciu te lu mare  mutu forte

              C            Dm 
La fija te lu re se tae la morte

              C            Dm 
La fija te lu re se tae la morte



STACCO:

Dm C  X2



STROFA 4:

Dm               C             Dm
Iddhra se tae la morte e j la vita

              C             Dm
La fija te lu re sta sse mmarita

              C             Dm
La fija te lu re sta sse mmarita



STACCO:

Dm C A# C Dm C



STROFA 5:

Dm                C             Dm 
Iddhra sta sse mmarita e j me nzuru

              C            Dm 
La fija te lu re me tae nu fiuru

              C            Dm 
La fija te lu re me tae nu fiuru



STACCO:

Dm C  X2



STROFA 6:

Dm               C             Dm
Iddhra me tae nu fiuru e j na palma

              C                Dm
La fija te lu re se ndjae alla Spagna

              C                Dm
La fija te lu re se ndjae alla Spagna



STACCO:

Dm C A# C Dm C



STROFA 7:

Dm                   C                 Dm
Iddrha se ndjae alla Spagna e j in Turchia

              C              Dm
La fija te lu re  lla zzita mia

              C              Dm..
La fija te lu re  lla zzita mia

La fija te lu re  lla zzita mia

La fija te lu re  lla zzita mia
VIDEO

Se il video non dovesse essere pi disponibile scrivi a indytab@googlemail.com. Grazie!
COMMENTA QUESTA TABLATURA
Devi avere JavaScript attivato per poter commentare! (misura antispam)