IndyTab Logo

BETA VERSION - 321 TABS DISPONIBILI

Cerca una tablatura nel nostro archivio:

Gruppo Canzone


Elenco dei gruppi presenti su IndyTab
Lista di tutte le tablature di IndyTab
DISCLAIMER
Questa tablatura rappresenta l'interpretazione della canzone da parte dell'autore. Può essere usata per scopi di studio, insegnamento e ricerca.

La tab è liberamente riproducibile in forum, blog, siti web (ad eccezione degli archivi di tablature online) e stampabile. Non è obbligatorio ma molto gradito citare la fonte (cioè IndyTab), meglio con un link di rimando al nostro sito.
ACCORDATORE
Per accordare la tua chitarra puoi usare il nostro accordatore online
TAB REQUEST
Stai cercando una tablatura? Suggeriscila compilando il modulo sottostante!

Gruppo
Titolo
Tua Mail

(la tua mail verrà usata per ricontattarti quando la tablatura sarà online)
DELLO STESSO GRUPPO

Meganoidi // Supereroi

Tablatura tratta dall'album: Into The Darkness, Into The Moda

(clicca qui per la legenda)

(clicca qui per il video)

     G    D#   F       A#  A   C#  D   D#  C   G#  G   F   A#/A
e|---3----6----8----|------------------------------------------|
B|---3----8----10---|------------------------------------------|
G|---4----8----10---|----------6---7---8---5-----------10------|
D|--(5)--(8)--(10)--|--8---7---6---7---8---5---6---5---10--8---|
A|--(5)--(6)--(8)---|--8---7---4---5---6---3---6---5---8---8---|
E|--(3)-------------|--6---5-------------------4---3-------5---|
     Accordi ska                Accordi distorti

--------------------------------------------------------------------------


RIFF1:
e|---------(distorta in p.m.)-----------|
B|--------------------------------------|
G|-------------------------------5------|
D|-----8---8---8---------5---7----------|
A|--------------------------------------|
E|---6---6---6---6-----6---6---6--------|


RIFF2:
e|------------------------|
B|--(chitarra distorta)---|
G|------------------------|
D|------------------------|
A|----------------3-------|
E|----3---5---6-----------|



INTRO:
(ritmo ska)

G G D# F   x2



STROFA 1:
(ritmo ska)

        G                        
Con gli occhi sempre attenti e i denti luccicanti

  D#                           F
incute piu' timore se ha gli occhiali e porta i guanti

   G
su quattro ruote o a piedi, in moto o alla centrale

   D#                           [F]                
la loro armata è forte ed è impossibile fuggire

   G
soldati dell'impero combattono i ribelli

    D#                   F
che passano col rosso a 120 su un Garelli

   G
la strada ormai è invasa dalle forze del male 

   D#                RIFF2
il bene è minacciato da un verbale



RITORNELLO:
(accordi distorti)

                          A#  (A)/A#  (C#)/D (C#)/D
Supereroi contro la Municipale

RIFF1                         A#  (A)/A#  (C#)/D (C#)/D
Supereroi contro le forze del male

D#           (D)    (D#)         C
senza di noi non ci sara' piu' futuro

e|-----------(chitarra distorta)------------|
B|------------------------------------------|
G|----------------5-------------------------|
D|-------------------8--7-------------------|
A|------------------------------------------|
E|------------------------------------------|
   A#  A    A#..            A#.. A.. G#..
   oh  no



STACCO:
(ritmo ska)

G G D# F   x2



STROFA 2:
(ritmo ska)

  G                        
Andavo a 100 all'ora per baciar la bimba mia

      D#                            F
quand'ecco che ad un bel punto mi ritrovo circondato

   G                            
credevo di esser solo e indisturbato nella via


e|-------------------------(chitarra non distorta)-|
B|-------------------------------------------------|
G|----------------------------------5-5------------|
D|---------------------------------------8-8--7-7--|
A|-------------------------------------------------|
E|-------------------------------------------------|
      D#                     [F]
   credevo di fuggire alla vendetta dello stato

   G
ma adesso ormai è iniziata una rivoluzione

    D#                             F
che sfreccia per le strade senza l'assicurazione

  G
e che fara' gonfiare le vene del mio collo
 
   D#                    RIFF2
gridando "tutti in vespa senza il bollo!"



RITORNELLO:
(accordi distorti)

                          A#  (A)/A#  (C#)/D (C#)/D
Supereroi contro la Municipale

RIFF1                         A#  (A)/A#  (C#)/D (C#)/D
Supereroi contro le forze del male

D#           (D)    (D#)         C
senza di noi non ci sara' piu' futuro

A#  A   A#+A#(p.m.)  C+C(p.m.)
oh  no



PONTE:

e|----------------------(chitarra non distorta)------|
B|---------------------------------------------------|
G|---------------------------------------------------|
D|-------------------8---8---8---8---10--10-8-7------|
A|-----------------10--10--10--10--10--10-------8-8--|
E|---------------------------------------------------|
 |                                                   |
e|---------------------------------------------------|
B|----(chitarra distorta)----------------------------|
G|---------------------------------------------------|
D|--5-------5-------5-------5-------5----------------|
A|---------------------------------------------------|
E|----3-------3-------3-------3-------3--------------|
    G..\

e|------(chitarra non distorta)---------|
B|--------------------------------------|
G|--------------------------------------|
D|----8---8---8---8---10-10-10-8-7------|
A|--10--10--10--10--10-------------8-8--|
E|--------------------------------------|


e|-----------------------(chitarra non distorta)-------|
B|-----------------------------------------------------|
G|-----------------------------------------------------|
D|--------------------8---8---8---8---10--10-8-7-------|
A|------------------10--10--10--10--10--10-------8-8---|
E|-----------------------------------------------------|
   G(p.m.)          D#(p.m.)        F(p.m.)        

e|-------------------------(chitarra non distorta)-----|
B|-----------------------------------------------------|
G|-----------------------------------------------------|
D|--------------------8---8---8---8---10-10-10-8-7-----|
A|------------------10--10--10--10--10-------------8-8-|
E|-----------------------------------------------------|
   G(p.m.)          D#(p.m.)        F(p.m.)




RIFF1
è sempre piu' potente questa organizzazione

RIFF1
con gli ausiliari al fianco è un' altra situazione


e|-<    in p.m.     >----------------------------|
B|-----------------------------------------------|
G|------------------------------5----------------|
D|----8----8----8------------5-----8---7---------|
A|-----------------------------------------------|
E|-6----6----6----6------------------------------|
                                             A# (A)/A# (A)/A# (C#)
   per posteggiare in centro ci sono i Supereroi!

RIFF1                     A#  (A)/A#  (C#)/D (C#)/D
Supereroi contro la Municipale

RIFF1                         A#  (A)/A#  (C#)/D (C#)/D
Supereroi contro le forze del male

D#           (D)    (D#)         C
senza di noi non ci sara' piu' futuro

A#  A   A#       [C]
oh  no  non ci sarà



OUTRO:

A#                  A#/A
    I want to break free

             D
I think onestly

             D#                   A# 
I'm gonna be fighting my worst enemy

                A#/A
I want to break free

             D
I think onestly

             D#                   A#+RIFF3 
I'm gonna be fighting my worst enemy

           A#/A+RIFF3 
Reagire tu puoi

             D+RIFF4
se vieni con noi

              D#         F     A#+RIFF3 
combattere al fianco dei Supereroi

           A#/A+RIFF3 
Reagire tu puoi

             D+RIFF4
se vieni con noi

              D#(p.m.)   F     A#..(+ ultima nota del RIFF4)
combattere al fianco dei Supereroi



RIFF3:
(ripetere le note più volte)

e|--10----------------|
B|------13--11--------|
G|--------------10----|
D|--------------------|
A|--------------------|
E|--------------------|


RIFF4:
(ripetere le note con * più volte)

e|--10*---------10--------10--------10-----------|
B|------13*-11*----13-11-----13-11-----13-11-----|
G|-----------------------------------------------|
D|-----------------------------------------------|
A|-----------------------------------------------|
E|-----------------------------------------------|
VIDEO

Se il video non dovesse essere più disponibile scrivi a indytab@googlemail.com. Grazie!
COMMENTA QUESTA TABLATURA
Devi avere JavaScript attivato per poter commentare! (misura antispam)