IndyTab Logo

BETA VERSION - 321 TABS DISPONIBILI

Cerca una tablatura nel nostro archivio:

Gruppo Canzone


Elenco dei gruppi presenti su IndyTab
Lista di tutte le tablature di IndyTab
DISCLAIMER
Questa tablatura rappresenta l'interpretazione della canzone da parte dell'autore. Può essere usata per scopi di studio, insegnamento e ricerca.

La tab è liberamente riproducibile in forum, blog, siti web (ad eccezione degli archivi di tablature online) e stampabile. Non è obbligatorio ma molto gradito citare la fonte (cioè IndyTab), meglio con un link di rimando al nostro sito.
ACCORDATORE
Per accordare la tua chitarra puoi usare il nostro accordatore online
TAB REQUEST
Stai cercando una tablatura? Suggeriscila compilando il modulo sottostante!

Gruppo
Titolo
Tua Mail

(la tua mail verrà usata per ricontattarti quando la tablatura sarà online)

Dropkick Murphys // I'm Shipping Up To Boston

Tablatura tratta dall'album: The Warrior's Code

(clicca qui per la legenda)

(clicca qui per il video)

    E(0) E   D   A   C   G
e|----------------------------|
B|----------------------------|
G|-------9---7-------5--------|
D|---2---9---7---7---5---5----|
A|---2---7---5---7---3---5----|
E|---0-----------5-------3----|


--------------------------------------------------------------------------

RIFF1:
e|------------------------------------------------7-------|
B|----------------7-8-7-----------------------7-8---------|
G|--7-9--7-9--7-9-------9-7------7-9--7-9--7-9------------|
D|--------------------------------------------------------|
A|--------------------------------------------------------|
E|--------------------------------------------------------|

RIFF2:
e|-----------------------------7--------------------------|
B|----------------7-8-7----------10-8-10-8-7-8------------|
G|----9--7-9--7-9-------9-7--------------------7-9--------|
D|--------------------------------------------------------|
A|--------------------------------------------------------|
E|--------------------------------------------------------|

RIFF3:
e|------------------------------------------------------------14-----|
B|--12-----12-----12-14-15-14-12-------12-----12-----12-14-15--------|
G|------14-----14----------------12--------14-----14-----------------|
D|-------------------------------------------------------------------|
A|-------------------------------------------------------------------|
E|-------------------------------------------------------------------|

RIFF4:
e|-------------------------------------14-12----12-------------------|
B|--12-----12-----12-14-15-14-12-------------15----15-14-15-14----12-|
G|------14-----14----------------12----------------------------14----|
D|-------------------------------------------------------------------|
A|-------------------------------------------------------------------|
E|-------------------------------------------------------------------|



INTRO:
(guitar arrangement)

RIFF2

RIFF1  RIFF2

RIFF1                        RIFF2 
[E(0)][E(0)] [E(0)][E(0)]    [E(0)][E(0)]  D A

RIFF1                        RIFF2 
[E(0)][E(0)] [E(0)][E(0)]    [E(0)][E(0)]  D A

RIFF1 + RIFF3    RIFF2 + RIFF4
E   D            E   D.. A..

RIFF1 + RIFF3    RIFF2 + RIFF4
E   D            E   D.. A..



VERSE 1:

(playing RIFF1 and RIFF2)

      [E(0)][E(0)]
I'm a sailor peg

      [E(0)][E(0)]
And I lost my leg

  [E(0)][E(0)]
I climbed up the topsails

  D       A
I lost my leg



RIFF1                        RIFF2 
[E(0)][E(0)] [E(0)][E(0)]    [E(0)][E(0)]  D A

RIFF1 + RIFF3    RIFF2 + RIFF4
E   D            E   D.. A..

RIFF1 + RIFF3    RIFF2 + RIFF4
E   D            E   D.. A..



CHORUS:

    D                      C       G
I'm shipping up to boston (whoa oh oh)   X3

    D               C       G     ([E(0)][E(0)]) 
I'm shipping off to find my wooden leg



RIFF1                        RIFF2 
[E(0)][E(0)] [E(0)][E(0)]    [E(0)][E(0)]  D A



VERSE 2:

(playing  RIFF1 and RIFF2)

      [E(0)][E(0)]
I'm a sailor peg

      [E(0)][E(0)]  XX   
And I lost my leg

  [E(0)][E(0)]
I climbed up the topsails

  D       A
I lost my leg



RIFF1 + RIFF3    RIFF2 + RIFF4
E   D            E   D.. A..

RIFF1 + RIFF3    RIFF2 + RIFF4
E   D            E   D.. A..



CHORUS: repeat CHORUS.



OUTRO:

RIFF1                         
[E(0)][E(0)] [E(0)][E(0)]   

RIFF2(slowing down the last notes)
[E(0)][E(0)]  D.. A.. E(0)  [E(0)][E(0)]
VIDEO

Se il video non dovesse essere più disponibile scrivi a indytab@googlemail.com. Grazie!
COMMENTI
29/10/09 15:36, fede:
rega da paura!!!

2/3/10 13:16, Black94:
Bella zio!!!

12/5/10 16:13, A-S-D:
notevole ma nn e' completa

12/5/10 16:14, figone88:
e' na cavolata da suonare

24/5/10 11:46, Alberto (Staff IndyTab):
Grazie. Che parte manca nella tab per non essere completa? A me pare che ci sia tutto.
Fateci sapere!

COMMENTA QUESTA TABLATURA
Devi avere JavaScript attivato per poter commentare! (misura antispam)