IndyTab Logo

BETA VERSION - 321 TABS DISPONIBILI

Cerca una tablatura nel nostro archivio:

Gruppo Canzone


Elenco dei gruppi presenti su IndyTab
Lista di tutte le tablature di IndyTab
DISCLAIMER
Questa tablatura rappresenta l'interpretazione della canzone da parte dell'autore. Può essere usata per scopi di studio, insegnamento e ricerca.

La tab è liberamente riproducibile in forum, blog, siti web (ad eccezione degli archivi di tablature online) e stampabile. Non è obbligatorio ma molto gradito citare la fonte (cioè IndyTab), meglio con un link di rimando al nostro sito.
ACCORDATORE
Per accordare la tua chitarra puoi usare il nostro accordatore online
TAB REQUEST
Stai cercando una tablatura? Suggeriscila compilando il modulo sottostante!

Gruppo
Titolo
Tua Mail

(la tua mail verrà usata per ricontattarti quando la tablatura sarà online)
DELLO STESSO GRUPPO

Meganoidi // Meganoidi

Tablatura tratta dall'album: Into The Darkness, Into The Moda

(clicca qui per la legenda)

(clicca qui per il video)

     A#   F    F#   C#     A    E
e|---6----8----9-----9-----5----7--|
B|---6----10---11----9-----5----9--|
G|---7----10---11----10----6----9--|
D|--(8)--(10)-(11)--(11)--(7)--(9)-|
A|--(8)--(8)--(9)---(11)--(7)--(7)-|
E|--(6)-------------(9)---(5)------|
          Accordi ska  
     
   A#  F   F#  C#  F(VIII) F#(IX) C#(IX) G#(XI)
|-----------------------------------------------|
|-----------------------------------------------|
|---------------6----10-----11-------------13---|
|--8---3---4----6----10-----11-----11------13---|
|--8---3---4----4-----8-----9------11------11---|
|--6---1---2-----------------------9------------|
                 Accodi punk         

--------------------------------------------------------------------------


INTRO DI BASSO:

G|-----------------9---10----10---10----10---11----11---11--------|
D|----8----8---8--------------------------------------------------|
A|---------------7---8----------8----------9----------9-----------|
E|--6--------6----------------------------------------------------|


G|------------------------|
D|------------------------|
A|--8-8---------8-11------|
E|------11-9-11-----------|
                       F(accordo ska)

G|-----------------9---10----10------------------11----11---11----|
D|----8----8---8--------------------10----------------------------|
A|---------------7---8------------8----8-------9----------9-------|
E|--6--------6------------------8---------------------------------|


G|------------------------|
D|------------------------|
A|--8-8---------8-11------|
E|------11-9-11------1----|


(accodi ska)

A#  F  F#  C#  F    x2



STROFA 1:
(accodi ska)

A#            F 
Noi Meganoidi siamo quelli che

    F#                C#            F
non vincono mai le battaglie contro Daitarn 3

A#                  F 
ma se pensi che noi siamo i più cattivi

  F#                 [F#]               pick-slide      
allora tu non sai chi è il vero Daitarn 3



STACCO:
(accodi punk)

A#  F  F#  C#  F    
A#  F  F#  C#  F(VIII) 


STROFA 2:
(accodi ska)

A#         F 
Voi cosa fareste al posto mio

    F#                 C#          [A]
per battere per sempre quel fottuto trio

  A#              F 
e no che non è possibile perchè

   F#                   [F#] 
se noi facciamo la spia loro seguono la scia



RITORNELLO:
(accodi punk)

A#                       F                 F#
Meganoidi contro Daitarn 3 noi gridiamo vendetta

       C#            F           A# 
e sarà grande la sconfitta del robot

                 F                     F#
Meganoidi alla riscossa pretendiamo giustizia

       C#        F(VIII)     F#(IX).. F(VIII).. C#(IX)..
protagonisti assoluti del cartoon



STACCO:
(accodi punk)

e|--------------------------------------------------------------|
B|--------------------------------------------------------------|
G|--------------------------------------------------------------|
D|--------------8-7-6-7--8p7h8p7h8------------------------------|
A|--------------------------------------------------------------|
E|--------------------------------------------------------------|
    A#(p.m.)                         F#(IX).. [F(VIII)] [C#(IX)]

e|--------------------------------------------------------------|
B|--------------------------------------------------------------|
G|--------------------------------------------------------------|
D|--------------8-7-6-7--8p7h8p7h8------------------------------|
A|--------------------------------------------------------------|
E|--------------------------------------------------------------|
    A#(p.m.)                         F#(IX).. F(VIII).. G#(XI)..


e|-----------------------------------------------------------------|
B|-----------------------------------------------------------------|
G|-----------------------------------------------------------------|
D|-------7---8---10----------11-10---10-11-10-9-10-6-6-------------|
A|---8-8---8---8----8----------------------------------------------|
E|-----------------------------------------------------------------|

e|-----------------------------------------------------------------|
B|-----------------------------------------------------------------|
G|--------------------------------------------------------------10-|
D|---------7---8---10----------11-10---10-11-10-9-10-6-6-6-6-10----|
A|--8--7-8---8---8----8--------------------------------------------|
E|-----------------------------------------------------------------|


(accodi ska)

A#  F  F#  C#  F 
 
A#  F  F#  C#  [A]   



STROFA 3:
(accodi ska)

A#             F 
   Haran Benjo tu non sai cos'è

   F#                   C#            F           A#  
la nostra condizione di schiavi del padrone Donzaucher

                 F
e il copione per noi non cambierà

          F#               [F#]         [A]  
già dalla sigla di partenza sai come finirà



STACCO:
(pennata ska lenta)

A#  F  F#  C# F x3

A#  F  F#  [C#] 



STROFA 3:
(accodi ska)

A#                      F 
Come l'uomo tigre anche Banjo ama la bontà

F#               C#        F
ma coi nemici... non ha pietà

         A#                 F         (F)(E)(F)
e non ci pensa due volte ad inculare noi

          F#               
che siamo vittime innocenti

[F#]           pick-slide 
di questa società



RITORNELLO:
(accodi punk)

A#                       F                 F#
Meganoidi contro Daitarn 3 noi gridiamo vendetta

       C#            F           A# 
e sarà grande la sconfitta del robot

                 F                     F#
Meganoidi alla riscossa pretendiamo giustizia

       C#        F(VIII)     A#
protagonisti assoluti del cartoon

A#                       F                 F#
Meganoidi contro Daitarn 3 noi gridiamo vendetta

       C#            F(VIII)     A# 
e sarà grande la sconfitta del robot

                 F(VIII)                F#(IX)
Meganoidi alla riscossa pretendiamo giustizia

       C#(IX)    F(VIII)     [A#]
protagonisti assoluti del cartoon



PONTE:
(accodi punk)

F(VIII).. [F#(IX)]  C#(IX,p.m.)  F(VIII)


[A#]
Giorno di grande equilibrio e correttezza

quando il cattivo avrà cio' che gli spetta

e|---------------------(in p.m.)-----------------------------|
B|-----------------------------------------------------------|
G|-----------------------------------------------------------|
D|-------------------------------------10----10----10----10--|
A|----------8------8------8------8---8-----8-----8-----8-----|
E|-------6------6------6------6------------------------------|
   riscattando il suo passato   un'infanzia complessa

e|---------------------(in p.m.)-----------------------------|
B|-----------------------------------------------------------|
G|--------------------------11-------------------------------|
D|----------11----11-----11----------------------------------|
A|--------9-----9------9-------------------------------------|
E|-----------------------------------------------------------|
                                 [C#(IX)]
   distruggendo il suo nemico il co-protagonista 



RITORNELLO:
(accodi punk)

A#                       F(VIII)           F#(IX)
Meganoidi contro Daitarn 3 noi gridiamo vendetta

       C#(IX)        F(VIII)     A# 
e sarà grande la sconfitta del robot

                 F(VIII)                F#(IX)
Meganoidi alla riscossa pretendiamo giustizia

       C#(IX)    F(VIII)     A#
protagonisti assoluti del cartoon

A#                       F(VIII)           F#(IX)
Meganoidi contro Daitarn 3 noi gridiamo vendetta

       C#(IX)        F(VIII)     A# 
e sarà grande la sconfitta del robot

                 F(VIII)                F#(IX)
Meganoidi alla riscossa pretendiamo giustizia

       C#(IX)    F(VIII)     [A#]
protagonisti assoluti del cartoon
VIDEO

Se il video non dovesse essere più disponibile scrivi a indytab@googlemail.com. Grazie!
COMMENTA QUESTA TABLATURA
Devi avere JavaScript attivato per poter commentare! (misura antispam)