IndyTab Logo

BETA VERSION - 321 TABS DISPONIBILI

Cerca una tablatura nel nostro archivio:

Gruppo Canzone


Elenco dei gruppi presenti su IndyTab
Lista di tutte le tablature di IndyTab
DISCLAIMER
Questa tablatura rappresenta l'interpretazione della canzone da parte dell'autore. Può essere usata per scopi di studio, insegnamento e ricerca.

La tab è liberamente riproducibile in forum, blog, siti web (ad eccezione degli archivi di tablature online) e stampabile. Non è obbligatorio ma molto gradito citare la fonte (cioè IndyTab), meglio con un link di rimando al nostro sito.
ACCORDATORE
Per accordare la tua chitarra puoi usare il nostro accordatore online
TAB REQUEST
Stai cercando una tablatura? Suggeriscila compilando il modulo sottostante!

Gruppo
Titolo
Tua Mail

(la tua mail verrà usata per ricontattarti quando la tablatura sarà online)
DELLO STESSO GRUPPO

Cattive Abitudini // Quando Il Sogno Muore

Tablatura tratta dall'album: Tutto Fa Parte Di Noi

(clicca qui per la legenda)

(clicca qui per il video)

    Bm  G   D   A      B  G  D  A
e|--7---3---5---5---|--------------|
B|--7---3---7---5---|--------------|
G|--7---4---7---6---|--------7-----|
D|--9---5---7---7---|--9--5--7--7--|
A|-(9)-(5)-(5)-(7)--|--9--5--5--7--|
E|-(7)-(3)-----(5)--|--7--3-----5--|
     accordi ska      accordi punk

--------------------------------------------------------------------------


INTRO:
(accordi ska distorti lenti)
e|-------------------------------------------------|
B|-------------------------------------------------|
G|--<<--------tutte-in-palm-muted------------->>---|
D|-------------------------------------------------|x2
A|--2-2-2-2-2-2-2-------------------------5-4-5----|
E|----------------5-3-3---3-3-3-3-3-3-3-5----------|
    Bm                    G

e|-------------------------------------------------|
B|-------------------------------------------------|
G|-/4-4-4-4-4-4-4--------------------------7-6-7\--|
D|----------------7-5-5---/5-5-5-5-5-5-5-7---------|
A|-------------------------------------------------|
E|-------------------------------------------------|
    Bm                     G

e|-------------------------------------------------|
B|-------------------------------------------------|
G|-/4-4-4-4-4-4-4--------------------------7-6-7~--|
D|----------------7-5-5---/5-5-5-5-5-5-5-7---------|
A|-------------------------------------------------|
E|-------------------------------------------------|
    Bm                      [G]                D(punk).. Pickslide



STROFA:
(accordi ska distorti veloci)

Bm                      G
Che cosa insegna la mia storia?

               D
che devo sopportare

             A                         Bm
milioni di cazzate che mi vogliono insegnare!

                           G
ma di certo non li ascolterò

                       D
io di certo li denigrerò

                A                         (Bm)
non voglio diventare un altro che non sono io



STACCO:
(accordi ska distorti lenti)

e|-------------------------------------------------|
B|-------------------------------------------------|
G|-/4-4-4-4-4-4-4--------------------------7-6-7\--|
D|----------------7-5-5---/5-5-5-5-5-5-5-7---------|
A|-------------------------------------------------|
E|-------------------------------------------------|
    Bm                     G

e|-------------------------------------------------|
B|-------------------------------------------------|
G|-/4-4-4-4-4-4-4--------------------------7-6-7~--|
D|----------------7-5-5---/5-5-5-5-5-5-5-7---------|
A|-------------------------------------------------|
E|-------------------------------------------------|
    Bm           [Bm]



STROFA:
(accordi ska distorti veloci)

Bm                     G
e poi mi trovo a protestare

                  D
con chi vuol sostenere

                A                           Bm
che siamo tutti ricchi in questa merda di paese

                        G
che profumo di mediocrità 

                          D
barzellette miste a falsità 

e|-----------------5----5----5----5--------------------|
B|-------------------5----5----5----5------------------|
G|-----------------------------------------------------|
D|-----------------------------------------------------|
A|-----------------------------------------------------|
E|-----------------------------------------------------|
                                                  B(punk).. 
   ma voglio ringraziare chi ha preso il posto di Dio

(pickslide)



RITORNELLO:
(accordi punk)

B.. G.. D..        A..
Uoohoo! non voglio più scappare

B.. G..          D..       A..
Uoohoo! perché è dentro di me!

B.. G.. D..       A..
Uoohoo! non posso perdonare

B.. G..          D..       A..
Uoohoo! perché è dentro di me!



STACCO:
(accordi punk)

B [G]          D [A]
      A fuoco!       A fuoco!

B [G]          D [A]
      A fuoco!



STROFA:
(accordi ska distorti veloci)

Bm           G                      D
La voglia di riscossa invade la mia strada

              A                      Bm
si giocano il futuro di ragazzi come VOI!

                       G
chi se l'è mai chiesto mai

                          D
ma chi se l'è mai chiesto mai

                A               A(punk)..             
Ma dove cazzo andremo quando il sogno muore?



RITORNELLO:
(accordi punk)

B.. G.. D..        A..
Uoohoo! non voglio più scappare

B.. G..          D..       A..
Uoohoo! perché è dentro di me!

B.. G.. D..       A..
Uoohoo! non posso perdonare

B.. G..          D..       A.. (A..)
Uoohoo! perché è dentro di me!



SOLO:

(accordi ska distorti lenti)

e|---------------------------------------------|
B|-----10------10-----10---10-----10--10-------|
G|--9b------9b------9b--9b------9b--9b---------|
D|---------------------------------------------|
A|---------------------------------------------|
E|---------------------------------------------|
    B                   G 

e|------------------------------------------------------------|
B|-----10----10----10-----------------------------------------|
G|--9b----9b----9b----9-7----7-------------------7---7-9-7----|
D|-------------------------9---9-7---7-9----77-9---9----------|
A|---------------------------------9--------------------------|
E|------------------------------------------------------------|
    D                   A                   B

e|--------------------------------------------------|
B|-------7---7-10-7-10-------------------7-7--------|
G|--77-9---9--------9b-9-7---------7-9-7---7--------|
D|-------------------------9---7-9------------------|
A|--------------------------------------------------|
E|--------------------------------------------------|
    G               D            A       

(da quì accordi aperti)

e|-----------------------------------------------------------|
B|-10p7-----10p7-----10p7-----10p7-----10p7-----10p7---------|
G|------9p7------9p7------9p7------9p7------9p7------9p7-----|
D|-----------------------------------------------------------|
A|-----------------------------------------------------------|
E|-----------------------------------------------------------|
   B                 G                 D

e|-----------------------------------------------------------------|
B|-------------------------------------------------7----------7----|
G|--9b-9b-9b-9b-9b-9b-9b11r9---7-7---7-----7---7-9---9----7-9------|
D|---------------------------------9-----9---9---------------------|
A|-----------------------------------------------------------------|
E|-----------------------------------------------------------------|
    A                          B               G

e|--------------------------------------------|
B|--10b12--10---7---10-7---7------------------|
G|-----------------------9---9-7--------------|
D|-------------------------------9---7--------|
A|--------------------------------------------|
E|--------------------------------------------|
    D               A



OUTRO:
(accordi punk)
B.. G..   D.. A..
B.. G..   D.. A..   B..
VIDEO

Se il video non dovesse essere più disponibile scrivi a indytab@googlemail.com. Grazie!
COMMENTA QUESTA TABLATURA
Devi avere JavaScript attivato per poter commentare! (misura antispam)