IndyTab Logo

BETA VERSION - 321 TABS DISPONIBILI

Cerca una tablatura nel nostro archivio:

Gruppo Canzone


Elenco dei gruppi presenti su IndyTab
Lista di tutte le tablature di IndyTab
DISCLAIMER
Questa tablatura rappresenta l'interpretazione della canzone da parte dell'autore. Può essere usata per scopi di studio, insegnamento e ricerca.

La tab è liberamente riproducibile in forum, blog, siti web (ad eccezione degli archivi di tablature online) e stampabile. Non è obbligatorio ma molto gradito citare la fonte (cioè IndyTab), meglio con un link di rimando al nostro sito.
ACCORDATORE
Per accordare la tua chitarra puoi usare il nostro accordatore online
TAB REQUEST
Stai cercando una tablatura? Suggeriscila compilando il modulo sottostante!

Gruppo
Titolo
Tua Mail

(la tua mail verrà usata per ricontattarti quando la tablatura sarà online)
DELLO STESSO GRUPPO

Derozer // Tu Lo Sai

Tablatura tratta dall'album: Alla Nostra Età

(clicca qui per la legenda)

(clicca qui per il video)

     D    A    B    G    E 
e|----------------------------------|
B|----------------------------------|
G|---7---------4---------9----------|
D|---7----7----4----5----9----------|
A|---5----7----2----5----7----------|
E|--------5---------3---------------|


--------------------------------------------------------------------------


RIFF(X3):

   |--------------X3---------------| 
e|-------------------------------------------|
B|-------------------------------------------|
G|---7--7-7---9-9-9---11---9-12-11-----------|
D|-------------------------------------------|
A|---5--5-5---7-7-7---9----7-10-9------------|
E|-------------------------------------------|


e|-------------------------------------------|
B|-------------------------------------------|
G|---7--7-7---9-9-9---11---12-11-9-----------|
D|-------------------------------------------|
A|---5--5-5---7-7-7---9----10-9--7-----------|
E|-------------------------------------------|

ACCORDI SOTTO IL RIFF: 
D.. A.. B.. G ..
D  A  B  G  


STROFA (tutta in palm muted):

D                          A 
Ci rincontreremo ancora un giorno e tu lo sai

G                                          (A)
ma sarà un altro momento, forse ci saranno guai

D                           A 
quante volte ti sei chiesta che sarà di noi

G                                               (A)
ma cogli questo momento, perché la vita è una e



RITORNELLO (X2, sempre con il riff iniziale):

      D          A 
Tu lo sai, tu lo sai,

      B          G  
tu lo sai, tu lo sai



STROFA (tutta in palm muted):

D                        A 
Ci son cose che si fanno senza alcun perché

G                                               (A)
e il bisogno d'esperienza sta esplodendo dentro me

D                       A 
dimmi se sorridi quando c'è Londra in tv

G                                     
e se odi veramente, questo lo sai solo tu



PONTE:

E              G           A(p.m.)       
guardami negli occhi e capirai

E          G                   A   
non c'è ne bisogno in fondo al cuore tu lo sai


RITORNELLO (come sopra X2)

OUTRO:
D..
VIDEO

Se il video non dovesse essere più disponibile scrivi a indytab@googlemail.com. Grazie!
COMMENTA QUESTA TABLATURA
Devi avere JavaScript attivato per poter commentare! (misura antispam)