IndyTab Logo

BETA VERSION - 321 TABS DISPONIBILI

Cerca una tablatura nel nostro archivio:

Gruppo Canzone


Elenco dei gruppi presenti su IndyTab
Lista di tutte le tablature di IndyTab
DISCLAIMER
Questa tablatura rappresenta l'interpretazione della canzone da parte dell'autore. Può essere usata per scopi di studio, insegnamento e ricerca.

La tab è liberamente riproducibile in forum, blog, siti web (ad eccezione degli archivi di tablature online) e stampabile. Non è obbligatorio ma molto gradito citare la fonte (cioè IndyTab), meglio con un link di rimando al nostro sito.
ACCORDATORE
Per accordare la tua chitarra puoi usare il nostro accordatore online
TAB REQUEST
Stai cercando una tablatura? Suggeriscila compilando il modulo sottostante!

Gruppo
Titolo
Tua Mail

(la tua mail verrà usata per ricontattarti quando la tablatura sarà online)
DELLO STESSO GRUPPO

Cattive Abitudini // Mimf

Tablatura tratta dall'album: Tutto Fa Parte Di Noi

(clicca qui per la legenda)

(clicca qui per il video)

     D  A  B  G
e|-----------------|
B|-----------------|
G|---7-------------|
D|---7--7--9--5----|
A|---5--7--9--5----|
E|------5--7--3----|

--------------------------------------------------------------------------


INTRO:
(ripetere tutte le note a vuoto più volte)

e|--------------------------------------------------------------------|
B|--------------------------------------------------------------------|
G|-7p0-9p0-11p0-9p0-7p0-9p0-11p0-9p0-7p0-9p0-11p0-9p0-12-11-9-11------|
D|--------------------------------------------------------------------|
A|--------------------------------------------------------------------|
E|--------------------------------------------------------------------|
   [D]              [A]              [B]              G..  [A][A]

e|--------------------------------------------------------------------|
B|--------------------------------------------------------------------|
G|-7p0-9p0-11p0-9p0-7p0-9p0-11p0-9p0-7p0-9p0-11p0-9p0-12-11-9-11------|
D|--------------------------------------------------------------------|
A|--------------------------------------------------------------------|
E|--------------------------------------------------------------------|
   D                A                B                G     A
                                               
e|---------------------------------------------(* ripetere più volte)-|
B|--------------------------------------------------------------------|
G|-7p0-9p0-11p0-9p0-7p0-9p0-11p0-9p0-7p0-9p0-11p0-9p0-12*-11*-9*-11---|
D|--------------------------------------------------------------------|
A|--------------------------------------------------------------------|
E|--------------------------------------------------------------------|
   D..              A..              B..              [G]    [A]



STROFA:

D..            A..
Quella foto la riconosco

      B..               G..   A..
è una mamma che io mi farei!

D..              A..
con le curve piuttosto a posto

        B..               G..
nel suo corpo mi ci ficcherei!

     A
perchè penso solo che



RITORNELLO:

B          G
non voglio guardare

A
desidero toccare!

B          G
non voglio guardare

A
desidero toccare!


STROFA:

D..           A..
se la vedo io non resisto

    B..                 G..   A..
e divento più matto che mai!

D..                 A..
voglio i postumi di una sbornia

     B..               G..
e trovarmi in american pie!

     A
perchè penso solo che



RITORNELLO:
Ripetere il ritornello.



STACCO:

[B]   [B]   [B]   B..
STOP! STOP! STOP! STOP!!!



SOLO:

(ripetere le note a vuoto più volte)   
e|--------------------------------------------(* ripetere più volte)--|
B|--------------------------------------------------------------------|
G|-7p0-9p0-11p0-9p0-7p0-9p0-11p0-9p0-7p0-9p0-11p0-9p0-12*-11*-9*-11---|
D|--------------------------------------------------------------------|
A|--------------------------------------------------------------------|
E|--------------------------------------------------------------------|
   D                A                B                G       A

(ripetere tutte le note 11 più volte)
e|-------------------------------------------------------|
B|-------------------------------------------------------|
G|-11-14-11-12--11-14-11-12--11-14-11-12--11-14-11-12-11-|
D|-------------------------------------------------------|
A|-------------------------------------------------------|
E|-------------------------------------------------------|
   D                         A

(due chitarre insieme)
e|-----------------------------------------------------------------|
B|-----------------------------------------------------------------|
G|-11-14-12-11-9-7---11-9----7---6h7---6h7---6h7-------------------|
D|-----------------9-----------------------------------------------|
A|-----------------------------------------------------------------|
E|-----------------------------------------------------------------|
    B            G    A      B..                         pickslide



STACCO PARLATO:
e|---------------------------------|
B|---------------------------------|
G|-7-7---7-7-7---7-7-7---7-7-7-6---|
D|---------------------------------|x3
A|-5-5---5-5-5---5-5-5---5-5-5-4---|
E|---------------------------------|

e|--------------------|
B|--------------------|
G|-7---9---11--12-14--|
D|--------------------|
A|-5---7---9---10-12--|
E|--------------------|

quella è una mimf!
e che diavolo è?
m i m f! una mamma che io mi farei!
siii l'hai detto!
MIMF! oh si!
hai capito? mimf!!!



ULTIMO RITORNELLO:

B          G
non voglio guardare

A
desidero toccare!

B          G
non voglio guardare

[A]  [A][A][A][A][A] B..
   desidero toccare!
VIDEO

Se il video non dovesse essere più disponibile scrivi a indytab@googlemail.com. Grazie!
COMMENTA QUESTA TABLATURA
Devi avere JavaScript attivato per poter commentare! (misura antispam)