IndyTab Logo

BETA VERSION - 321 TABS DISPONIBILI

Cerca una tablatura nel nostro archivio:

Gruppo Canzone


Elenco dei gruppi presenti su IndyTab
Lista di tutte le tablature di IndyTab
DISCLAIMER
Questa tablatura rappresenta l'interpretazione della canzone da parte dell'autore. Può essere usata per scopi di studio, insegnamento e ricerca.

La tab è liberamente riproducibile in forum, blog, siti web (ad eccezione degli archivi di tablature online) e stampabile. Non è obbligatorio ma molto gradito citare la fonte (cioè IndyTab), meglio con un link di rimando al nostro sito.
ACCORDATORE
Per accordare la tua chitarra puoi usare il nostro accordatore online
TAB REQUEST
Stai cercando una tablatura? Suggeriscila compilando il modulo sottostante!

Gruppo
Titolo
Tua Mail

(la tua mail verrà usata per ricontattarti quando la tablatura sarà online)
DELLO STESSO GRUPPO

Cattive Abitudini // Coffi Sciop

Tablatura tratta dall'album: Tutto Fa Parte Di Noi

(clicca qui per la legenda)

(clicca qui per il video)

    C  G  F  F(XIII)  A   
e|-----------------------|
B|-----------------------|
G|--5--------------------|
D|--5--5--3----15-----7--|
A|--3--5--3----15-----7--|
E|-----3--1----13-----5--|


--------------------------------------------------------------------------


INTRO:

e|---------------------------------------------------------|
B|---------------------------------------------------------|
G|--5-4-5-4-5-4-5-4--------4----5-4-5-4-5-4-5-4---------4--|
D|-------------------7-5-7------------------------7-5-7----|
A|---------------------------------------------------------|
E|---------------------------------------------------------|
    C                           F

e|---------------------------------------------------------|
B|---------------------------------------------------------|
G|--5-4-5-4-5-4-5-4--5-4-5----9-7-9-7-9-7-9-7----7-9-10-9--|
D|--------------------------------------------10-----------|
A|---------------------------------------------------------|
E|---------------------------------------------------------|
    A                         G



STROFA:

C..              C..
Stavo camminando mi stavo chiedendo

G..                        F..
dove stavo andando e che facevo la

C..                   C..
non ci sto più dentro matto fino al punto

G..                     F..
di non percepire questa mia follia

C
bella prospettiva l'occhio che si infiamma

G                       F
senza che nessuno ti disturberà

C
salta nel mio mondo tondo come un quadro

G                        F
una volta entrati non si esce più



PONTE:

[C][C] [C][C] [C][C] 
NO!     NO!    NO!

[C][C]      F               G
questo è un sogno o la realtà?

[C][C] [C][C] [C][C] 
NO!     NO!    NO!

[C][C] F           G    [G]
il paradiso eccolo qua!



RITORNELLO:

                   C
benvenuti al coffi sciop!

                   G
benvenuti al coffi sciop!

                   F
benvenuti al coffi sciop!

                  A G  C
io di certo me ne vado

                   G
benvenuti al coffi sciop!

                   F
benvenuti al coffi sciop!

                  A G
io di certo me ne vado



RIFF:
Ripetere il primo RIFF.



STROFA:

C..               C..
senti che profumo io non ci resisto

G..                        F..
forse gliene porto un poca al mio papà

C..             C..
e poter provare ad interagire

[G]          [G]          [F][F][F]
figlio padre padre figlio come mai

C                
forse non capisci ma nemmeno io

G                          F
questo è quello che volevo io da te

C
ecco la morale anche se fa male

G                          F
penso che alla fine tu sia come me



PONTE:
Ripetere il PONTE.



RITORNELLO:


benvenuti al coffi sciop!

                   G
benvenuti al coffi sciop!

                   F
benvenuti al coffi sciop!

                  A G  C
io di certo me ne vado

                   G
benvenuti al coffi sciop!

                   F
benvenuti al coffi sciop!

                  A..  G..
io di certo me ne va - do



STACCO:
e|---------------------------------------------------|
B|---3------3------5-3----5-3----6-5-----------------|
G|-----5------5----------------------7-5---5-7-5-----|
D|-5------5------5------5----------------7-----------|
A|-3------3------3------3----------------------------|
E|---------------------------------------------------|


e|---------------------------------------------------|
B|--6-5----------------------------------------------|
G|------7-5---5-7-5----/9---7p5h7----5p4h5-----------|
D|----------7----------------------------------------|
A|---------------------------------------------------|
E|---------------------------------------------------|



ULTIMO RITORNELLO:

C                     G
benvenuti al coffi sciop!

                      A
benvenuti al coffi sciop!

                  F G           
io di certo me ne vado

[C]       [G]       [F]
benvenuti benvenuti benvenuti

             A  G   C        
benvenuti al nostro show!

                   G
benvenuti al coffi sciop!

                   F
benvenuti al coffi sciop!

                  A G  C
io di certo me ne vado

                   G
benvenuti al coffi sciop!

                   F
benvenuti al coffi sciop!

                  A G   F../F(XIII)..
io di certo me ne vado!
VIDEO

Se il video non dovesse essere più disponibile scrivi a indytab@googlemail.com. Grazie!
COMMENTA QUESTA TABLATURA
Devi avere JavaScript attivato per poter commentare! (misura antispam)