IndyTab Logo

BETA VERSION - 321 TABS DISPONIBILI

Cerca una tablatura nel nostro archivio:

Gruppo Canzone


Elenco dei gruppi presenti su IndyTab
Lista di tutte le tablature di IndyTab
DISCLAIMER
Questa tablatura rappresenta l'interpretazione della canzone da parte dell'autore. Può essere usata per scopi di studio, insegnamento e ricerca.

La tab è liberamente riproducibile in forum, blog, siti web (ad eccezione degli archivi di tablature online) e stampabile. Non è obbligatorio ma molto gradito citare la fonte (cioè IndyTab), meglio con un link di rimando al nostro sito.
ACCORDATORE
Per accordare la tua chitarra puoi usare il nostro accordatore online
TAB REQUEST
Stai cercando una tablatura? Suggeriscila compilando il modulo sottostante!

Gruppo
Titolo
Tua Mail

(la tua mail verrà usata per ricontattarti quando la tablatura sarà online)
DELLO STESSO GRUPPO

Cattive Abitudini // La Solita Scusa

Tablatura tratta dall'album: Tutto Fa Parte Di Noi

(clicca qui per la legenda)

(clicca qui per il video)

    D    B    A       D  B  G  A  
e|----------------|------------------|
B|-(7)------------|------------------|
G|--7---(8)--(6)--|---7--------------|
D|--7----9----7---|---7--9--5--7-----|
A|--5----9----7---|---5--9--5--7-----|
E|-------7----5---|------7--3--5-----|
   accordi puliti   accordi distorti

--------------------------------------------------------------------------


INTRO:
(chitarra pulita)
e|--------------------------------------|
B|--------------------------------------|
G|--------------------------------------|
D|--------------------------------------|x3
A|--5--5-5-5/7--7-7-7/9--9-9-10-9-7-4---|
E|--------------------------------------|

e|----------------------|
B|----------------------|
G|-----------------7----|
D|-----------------7----|
A|--5--5-5-5/7-7-7-5----|
E|----------------------|


STROFA:
(accordi puliti)

D
Mi dispiace ho il mal di testa

                    B.. A..
resto a casa con la mamma ah ah

D
oggi esco con le mie amiche

                  B.. A..
non mi devi disturbare ah ah

D
col mio ex è tutto finito

                    B.. A..
non lo voglio più vedere ah ah

D
ma stasera gli devo parlare

                  B.. A..
non mi puoi telefonare! ah ah



PONTE:
(accordi distorti)

G               B   A
sempre l'ultimo a saperlo

G             B    A
nella rete senza volerlo

G          B      A
la fiducia non ha occhi

G                     A
è per questo che tu abbocchi!



RITORNELLO:
(accordi distorti)

D            A                      G
  come tutti voi quattro allocchi e poi

                B A     D
la piglierò nel culo ah ah

           A                      G
come tutti voi quattro allocchi e poi

                B A
la piglierò nel culo



CORO:
(chitarra distorta, * note ripetute piú volte)

e|---------------------------------|
B|---------------------------------|
G|--7*---9*---11*---12-11-9-6------|
D|---------------------------------|x3
A|--5*---7*---9*----10-9--7-4------|
E|---------------------------------|
    Ah   Ah   Ah

e|-------------------|
B|-------------------|
G|--7*---9*---7..----|
D|-------------------|
A|--5*---7*---5..----|
E|-------------------|



STROFA:
(chitarra pulita)

D
mi dispiace stasera ho sonno

                 B.. A..
ho bisogno di dormire ah ah

D
son due giorni che non chiudo occhio

                      B.. A..
mentre tu sei stato a casa per me

D
io non posso rifare l'amore

                B.. A..
guardo il televisore ah ah

D
che mi importa se ci vediam poco

                    B.. A..
tanto sento che è finita ah ah



PONTE:
(accordi distorti)

G             B     A
se hai solo pochi momenti

G           B      A
non li vivi perchè menti

G               B    A
e scappare cose'è servito

G                      A
se hai perso un buon amico?



RITORNELLO:
Ripetere il ritornello due volte.



CORO:
Ripetere il coro, stoppando l'ultima ottava.



OUTRO:
e|--/10~--|
B|--------|
G|--------|
D|--------|
A|--------|
E|--------|
VIDEO

Se il video non dovesse essere più disponibile scrivi a indytab@googlemail.com. Grazie!
COMMENTA QUESTA TABLATURA
Devi avere JavaScript attivato per poter commentare! (misura antispam)