IndyTab Logo

BETA VERSION - 321 TABS DISPONIBILI

Cerca una tablatura nel nostro archivio:

Gruppo Canzone


Elenco dei gruppi presenti su IndyTab
Lista di tutte le tablature di IndyTab
DISCLAIMER
Questa tablatura rappresenta l'interpretazione della canzone da parte dell'autore. Può essere usata per scopi di studio, insegnamento e ricerca.

La tab è liberamente riproducibile in forum, blog, siti web (ad eccezione degli archivi di tablature online) e stampabile. Non è obbligatorio ma molto gradito citare la fonte (cioè IndyTab), meglio con un link di rimando al nostro sito.
ACCORDATORE
Per accordare la tua chitarra puoi usare il nostro accordatore online
TAB REQUEST
Stai cercando una tablatura? Suggeriscila compilando il modulo sottostante!

Gruppo
Titolo
Tua Mail

(la tua mail verrà usata per ricontattarti quando la tablatura sarà online)
DELLO STESSO GRUPPO

Porno Riviste // Il Tempo Delle Mele

Tablatura tratta dall'album: Sogni, Incubi E... La Cosa Inutile

(clicca qui per la legenda)

(clicca qui per il video)

    A  D  E  F#  E(0)
e|----------------------|
B|----------------------|
G|-----7--9-------------|
D|--7--7--9--4----2-----|
A|--7--5--7--4----2-----|
E|--5--------2----0-----|


--------------------------------------------------------------------------


INTRO:
(palm muted)

D E(0) A F#   (una chitarra)
D E(0) A F#   (due chitarre)
D(p.m.)+D.. E(0,p.m.)+E.. A..



STROFA:

A+A..       D+D..         E+E..E..
Ciao tu chi sei che cazzo vuoi

A+A..     D+D..        E+E..E..
davanti a te davanti a noi

  D              E
tenendo il passo giusto

        A                 F#
sai che voli e assaggi il gusto

D               E    [A] D(p.m.)+D..  E(p.m.)+E..
del tempo delle mele

A           D             E
C'hai detto che non pensi mai

A       D          E
uscendo dove cazzo vai

    D            E        
qualcuno c'ha pensato

         A           F#
e adesso so che sono nato

D               E       [A] [A]
nel tempo delle mele...



RITORNELLO:

A              (D) (A)    E
Niente di nuovo niente di bello

A               (D) (A)    E
niente mi toglie da questa tomba

A                 (D) (A)   E
hei ciao chiamami faccia di gomma

A                  (D)  (A) E
hei ciao fin che nessuno mi smonta

D               E
Ma appena ci si siede

   A             F#
ti picchia nelle vene

D                E..
ci picchia nelle vene



SOLO:

e|-------------------------------------------|
B|-------------------------------------------|
G|----6---6-7-6-----6---------6-7-7-6--------|
D|------7-------7-9---9---6-9---------7-9----|
A|--7----------------------------------------|
E|-------------------------------------------|
      A     D         E

e|-------------------------------------------|
B|-------------------------------------------|
G|--6---6-7-6-----6---------6-7-7-6----------|
D|----7-------7-9---9---6-9---------7-9------|
A|-------------------------------------------|
E|-------------------------------------------|
    A     D         E

e|------------------------------------------------------|
B|------------------------------------------------------|
G|-9-9-9-7-7-6---9-9-9-7-7-6---9-9-9-7-7-6-----6-7-6----|
D|----------------------------------------6----------6--|
A|------------------------------------------------------|
E|------------------------------------------------------|
   A             D             E

e|-----------------------------------------------------|
B|-----------------------------------------------------|
G|-6-7-6-----6-7-6---6-7-9-9-9-9-9-9-9-9---------------|
D|-------7---------7-------------9-9-9-9---------------|
A|-----------------------------------------------------|
E|-----------------------------------------------------|
   A         D           E                [A] [A]



RITORNELLO:

A              (D) (A)    E
Niente di nuovo niente di bello

A               (D) (A)    E
niente mi toglie da questa tomba

A                 (D) (A)   E
hei ciao chiamami faccia di gomma

A                  (D)  (A) E
hei ciao fin che nessuno mi smonta

D                E
Tenendo il passo giusto

        A                 F#
sai che voli e assaggi il gusto

D               E    (A)(E)(A)(E) A.. [A]
del tempo delle mele
VIDEO

Se il video non dovesse essere più disponibile scrivi a indytab@googlemail.com. Grazie!
COMMENTA QUESTA TABLATURA
Devi avere JavaScript attivato per poter commentare! (misura antispam)