IndyTab Logo

BETA VERSION - 321 TABS DISPONIBILI

Cerca una tablatura nel nostro archivio:

Gruppo Canzone


Elenco dei gruppi presenti su IndyTab
Lista di tutte le tablature di IndyTab
DISCLAIMER
Questa tablatura rappresenta l'interpretazione della canzone da parte dell'autore. Può essere usata per scopi di studio, insegnamento e ricerca.

La tab è liberamente riproducibile in forum, blog, siti web (ad eccezione degli archivi di tablature online) e stampabile. Non è obbligatorio ma molto gradito citare la fonte (cioè IndyTab), meglio con un link di rimando al nostro sito.
ACCORDATORE
Per accordare la tua chitarra puoi usare il nostro accordatore online
TAB REQUEST
Stai cercando una tablatura? Suggeriscila compilando il modulo sottostante!

Gruppo
Titolo
Tua Mail

(la tua mail verrà usata per ricontattarti quando la tablatura sarà online)
DELLO STESSO GRUPPO

Punkreas // Fegato Centenario

Tablatura tratta dall'album: 90-93

(clicca qui per la legenda)

    A  C  G  D  F  E
e|---------------------|
B|---------------------|
G|-----5-----7---------|
D|--7--5--5--7--3--2---|
A|--7--3--5--5--3--2---|
E|--5-----3-----1--0---|


--------------------------------------------------------------------------


INTRO:
(Prima chitarra p.m., seconda chitarra accordi aperti)

A C G D
A C G D+FILL1

    FILL1
e|-----------------|
B|-----------------|
G|-------5---------|
D|--/7-7---7--5----|
A|--------------7~-|
E|-----------------|



(da ora tutta la canzone con accordi aperti)


STROFA:

A              C          G            D
Io mi accascio al mattino per problemi di intestino

A              C          G               D
non so proprio cosa fare, cacca e rutti a tutto andare

A              C             G           D
mi sussurra il mio duodeno: "ma sei diventato scemo?"

A              C            G            D
gli rispondo: "per piacere, parla tu col mio clistere"



RITORNELLO:

A       F     G           E
Acqua Boario, fegato centenario!

A       F     G           E
Acqua Boario, fegato centenario!



STACCO:

e|---------------------------------------------------------------|
B|---------------------------------------------------------------|
G|---------------------------------------------------------------|
D|--------------------22-33-4/5----------------------44-55-6/7---|
A|-----44-55-6/7---33-----------------22-33-4/5---55-------------|
E|--55-----------------------------33----------------------------|
    A              C               G              D

e|---------------------------------------------------------------|
B|---------------------------------------------------------------|
G|---------------------------------------------------------------|
D|--------------------22-33-4/5----------------------3-----------|
A|-----44-55-6/7---33-----------------22-33-4/5---55---5-3-------|
E|--55-----------------------------33----------------------5-3---|
    A              C               G              D         


STROFA:

A            C           G            D
Preso da una convulsione ho perduto anche un polmone

A                 C             G            D
quindi ho preso l'archibugio, l'ho incassato nel pertugio

A           C         G             D
non sapendo cosa fare sono andato a vomitare

A             C             G                D
sono stato un po' violento, ho imbrattato il pavimento



RITORNELLO:
Ripetere il ritornello.



STACCO:

A C G D x2



ULTIMO RITORNELLO:

A       F     G           E
Acqua Boario, fegato centenario!

A       F     G           E       A..
Acqua Boario, fegato centenario!
COMMENTA QUESTA TABLATURA
Devi avere JavaScript attivato per poter commentare! (misura antispam)