IndyTab Logo

BETA VERSION - 321 TABS DISPONIBILI

Cerca una tablatura nel nostro archivio:

Gruppo Canzone


Elenco dei gruppi presenti su IndyTab
Lista di tutte le tablature di IndyTab
DISCLAIMER
Questa tablatura rappresenta l'interpretazione della canzone da parte dell'autore. Può essere usata per scopi di studio, insegnamento e ricerca.

La tab è liberamente riproducibile in forum, blog, siti web (ad eccezione degli archivi di tablature online) e stampabile. Non è obbligatorio ma molto gradito citare la fonte (cioè IndyTab), meglio con un link di rimando al nostro sito.
ACCORDATORE
Per accordare la tua chitarra puoi usare il nostro accordatore online
TAB REQUEST
Stai cercando una tablatura? Suggeriscila compilando il modulo sottostante!

Gruppo
Titolo
Tua Mail

(la tua mail verrà usata per ricontattarti quando la tablatura sarà online)
DELLO STESSO GRUPPO

Punkreas // Chiapas

Tablatura tratta dall'album: Elettrodomestico

(clicca qui per la legenda)

(clicca qui per il video)

     D   B    G    A    C 
e|--------------------------------------|
B|--------------------------------------|
G|---7---4--------------5---------------|
D|---7---4----5----7----5---------------|
A|---5---2----5----7----3---------------|
E|------------3----5--------------------|

--------------------------------------------------------------------------

RIFF 1:

  |--------------X2-------------|
e|-----------------------------------------------------------|
B|-----------------------------------------------------------|
G|-/7-7-7-7--7---/7-7---9b11--9------------------------------|
D|-----------------------------------------------------------|
A|-----------------------------------------------------------|
E|-----------------------------------------------------------|

e|-----------------------------------------------------------|
B|---------------------------10---------------------10-10-10-|
G|-/7-7-7-7--7---/7-7---9b11-------/7-7-7-7--7--7-7-7--7--7--|
D|-----------------------------------------------------------|
A|-----------------------------------------------------------|
E|-----------------------------------------------------------|
 
ACCORDI SOTTO IL RIFF: 
D  B  G  A  (X2)


STROFA 1:

D                            B                        G  
Sole caldo abbraccia bianche spiagge delle coste messicane,

                    A                        D  
come opuscoli che illustrano le vacanze americane,

              B                        G   
Acapulco meta d'oro d'affaristi e finanzieri

                    A 
che pretendon dieci volte quel che han prestato ieri


RIFF 2:

  |--------------X2-------------|
e|-----------------------------------------------------------|
B|-----------------------------------------------------------|
G|-/7-7-7-7--7---/7-7---9b11--9------------------------------|
D|-----------------------------------------------------------|
A|-----------------------------------------------------------|
E|-----------------------------------------------------------|

ACCORDI SOTTO IL RIFF: 
D  B  G  A 


STROFA 2:

D                         B                            G  
cresce il malumore,poi la rabbia quando aumenta l'inflazione,

                   A                         D 
conseguenza già prevista di una folle importazione,

                 B                         G  
incominciano gli scontri sotto piogge tropicali

                  A                            D 
contro chi con la violenza vuol salvare i malaffari.


PRERITORNELLO:

       B                G             A    
Il presidente che ha venduto agli USA la sua gente,

D                       B 
perchè perchè lui ha pensato

         G          A 
fosse il modo per sanar lo stato

D          B            G         A  
senza calcolare che non si poteva più campare

D           B            G              A  
e nell'entroterra soffia forte il vento della guerra.


RITORNELLO:

G      A            D                      G  
Invano voi li cercherete,tanto non li scoverete,

       A            D                               G    
perchè quei passamontagna sono in Francia in Cile e Spagna

      A          D  
donde sta la resistencia

                   G       C           A 
di chi vuol rivendicare la sua sopravvivenza.


RIFF 3:

   |--------------X2-------------|
e|-----------------------------------------------------------|
B|-----------------------------------------------------------|
G|-/7-7-7-7--7---/7-7---9b11--9------------------------------|
D|-----------------------------------------------------------|
A|-----------------------------------------------------------|
E|-----------------------------------------------------------|

e|-----------------------------------------------------------|
B|---------------------------10------------------------------|
G|-/7-7-7-7--7---/7-7---9b11-------/7-7-7-7--7--/7-7-7-7-7-7-|
D|-----------------------------------------------------------|
A|-----------------------------------------------------------|
E|-----------------------------------------------------------|

ACCORDI SOTTO IL RIFF: 
D  B  G  A  (X2)


STROFA 3:

Oltre alla voce e alla chitarra ritmica, la prima chitarra fa
RIFF 3:

    |------- x6, in p.m. ------|
e|---------------------------------------------------------|
B|---10--------10--------10----------10-10-10-10-10-10-10--|
G|-----------------------------------7--7--7--7--7--7--7---|
D|------7-7-------7-7-------7------------------------------|
A|---------------------------------------------------------|
E|---------------------------------------------------------|


D                     B..                  G..   
Resi conto dell'inefficienza del potere militare

                 A..                   D  
si ricercan mediazioni o persone da esiliare

                     B                     G(p.m.)   
intervengono anche i vescovi per fare da pacieri
 
                  A(p.m.)                      D 
ma non è con le parole che si puo' scordar che ieri... 


PRERITORNELLO: come sopra


RITORNELLO:

G      A            D                      G  
Invano voi li cercherete,tanto non li scoverete,

       A            D                               G    
perchè quei passamontagna sono in Francia in Cile e Spagna

      A          D  
donde sta la resistencia

                   G       C          [A] 
di chi vuol rivendicare la sua sopravvivenza.


RIFF 3: come sopra


PONTE
D.. D.. D 


RITORNELLO:

G      A            D                      G  
Invano voi li cercherete,tanto non li scoverete,

       A            D                               G    
perchè quei passamontagna sono in Francia in Cile e Spagna

      A          D  
donde sta la resistencia

                   G       C          A      D.. [D] 
di chi vuol rivendicare la sua sopravvivenza.
VIDEO

Se il video non dovesse essere più disponibile scrivi a indytab@googlemail.com. Grazie!
COMMENTA QUESTA TABLATURA
Devi avere JavaScript attivato per poter commentare! (misura antispam)