IndyTab Logo

BETA VERSION - 321 TABS DISPONIBILI

Cerca una tablatura nel nostro archivio:

Gruppo Canzone


Elenco dei gruppi presenti su IndyTab
Lista di tutte le tablature di IndyTab
DISCLAIMER
Questa tablatura rappresenta l'interpretazione della canzone da parte dell'autore. Può essere usata per scopi di studio, insegnamento e ricerca.

La tab è liberamente riproducibile in forum, blog, siti web (ad eccezione degli archivi di tablature online) e stampabile. Non è obbligatorio ma molto gradito citare la fonte (cioè IndyTab), meglio con un link di rimando al nostro sito.
ACCORDATORE
Per accordare la tua chitarra puoi usare il nostro accordatore online
TAB REQUEST
Stai cercando una tablatura? Suggeriscila compilando il modulo sottostante!

Gruppo
Titolo
Tua Mail

(la tua mail verrà usata per ricontattarti quando la tablatura sarà online)
DELLO STESSO GRUPPO

Punkreas // La Canzone Del Bosco

Tablatura tratta dall'album: Paranoia E Potere

(clicca qui per la legenda)

(clicca qui per il video)

    E  D#  D  B  A  G
e|----------------------|
B|----------------------|
G|--9--8---7--9--7--5---|
D|--9--8---7--9--7--5---|
A|--7--6---5--7--5--3---|
E|----------------------|


--------------------------------------------------------------------------


INTRO:
(in minuscolo le note del basso)
d a d a E
d a D A



FILL1:
e|-------------------|
B|--5----------------|
G|--4b6r4p2----------|
D|-----------4--2----|
A|-------------------|
E|-------------------|



STROFA:

E                         (D#) D        A + FILL1
Ogni civetta ha la sua casa,     un albero

E                         (D#) D        A
Ogni civetta ha la sua casa,     un albero

B          D             [E] [E] [E] (E)(D#)
ma il barbagianni invece no

B          D             A(p.m.) (D#)
ma un barbagianni invece no



STROFA:

E                      (D#) D            A
Una civetta puo' cantare      quando le pare

E                      (D#) D            A
Una civetta puo' cantare      quando le pare

B          D             [E] [E] [E] (E)(D#)
ma il barbagianni invece no

B          D             E    (B)(D)
ma il barbagianni invece no



RITORNELLO:

G      A     D       E                (B) (A)  G
Volerò via come un miraggio per questo che non è

            A     D     E        B  A  G
che una questione di piumaggio

       A      D     E              (B)(A)  G      A
preferirò grotte di tufo son sempre meglio che restar

B                           (D)(D#)
  con quattro allocchi e un gufo!



STROFA:

E                         (D#) D             A + FILL1
Un barbagianni che da solo       non puo' campare

E                         (D#) D          A
ma se son cento la civetta       dovra' volare via

B          D             [E] [E] [E] (E)(D#)
ma il barbagianni invece no

B          D             A(p.m.) (D#)
ma il barbagianni invece no



STROFA:

E                         (D#) D         A
Seguire schemi ben precisi       di evoluzione

E                         (D#) D         A
porterà tutte le civette         all'estizione

B        D             [E] [E] [E] (E)(D#)
noi barbagianni invece no

B        D             E    (B)(D)
noi barbagianni invece no



RITORNELLO:

G      A     D       E                (B) (A)  G
Volerò via come un miraggio per questo che non è

            A     D     E        B  A  G
che una questione di piumaggio

       A      D     E              (B)(A)  G      A
preferirò grotte di tufo son sempre meglio che restar

B                           (D)(D#)
  con quattro allocchi e un gufo!



SOLO:
e|--------------------------------------------------|
B|--------------------------------------------------|
G|-/14-14-14-14-12----12----/14-14-14-14-12----12---|
D|-/14-14-14-14----14-------/14-14-14-14----14------|
A|--------------------------------------------------|
E|--------------------------------------------------|
    E

e|--------------------------------------------------|
B|--------------------------------------------------|
G|-/14-14-14-14-12----------------------------------|
D|-/14-14-14-14----14-------------------------------|
A|--------------------------------------------------|
E|----------------------12-12-10-10-9-9-7-7---------|
    D                   A

e|--------------------------------------------------|
B|--------------------------------------------------|
G|----12-----14-12-----14-12----12------------------|
D|-14----14--------14--------14----14--(12)---------|
A|--------------------------------------------------|
E|--------------------------------------------------|
   E                               D

e|--------------------------------------------------|
B|--------------------------------------------------|
G|--12-12-11------12-11-------12-11-----------------|
D|-----------14---------14----------14--------------|
A|--------------------------------------------------|
E|--------------------------------------------------|
             A

e|-12-12-12-12-12-12-12-12---14-14-14-14-14-14-14-14---|
B|-12-12-12-12-12-12-12-12---12-12-12-12-12-12-12-12---|
G|-12-12-----------------------------------------------|
D|-14--------------------------------------------------|
A|-----------------------------------------------------|
E|-----------------------------------------------------|
   B                         D

e|--12--15--12--14--12--12--12--14--12--15--12--14--12--12--|
B|-(12)(12)(12)(12)(12)(12)(12)(12)(12)(12)(12)(12)(12)(12)-|
G|----------------------------------------------------------|
D|----------------------------------------------------------|
A|----------------------------------------------------------|
E|----------------------------------------------------------|
    E

e|--------------------------------------------------------|
B|--------------------------------------------------------|
G|--14-14-14---12----12------14-14-14-14-12---------------|
D|--14-14-14------14----14---14-14-14-14----14-12-14~-----|
A|--------------------------------------------------------|
E|--------------------------------------------------------|
    B                   D                         E      (B)(D)



ULTIMO RITORNELLO:

G      A     D       E                (B) (A)  G
Volerò via come un miraggio per questo che non è

            A     D     E        B  A  G
che una questione di piumaggio

       A      D     E              (B)(A)  G      A
preferirò grotte di tufo son sempre meglio che restar

B                           (D)(D#) [E]
  con quattro allocchi e un gufo!
VIDEO

Se il video non dovesse essere più disponibile scrivi a indytab@googlemail.com. Grazie!
COMMENTA QUESTA TABLATURA
Devi avere JavaScript attivato per poter commentare! (misura antispam)