IndyTab Logo

BETA VERSION - 321 TABS DISPONIBILI

Cerca una tablatura nel nostro archivio:

Gruppo Canzone


Elenco dei gruppi presenti su IndyTab
Lista di tutte le tablature di IndyTab
DISCLAIMER
Questa tablatura rappresenta l'interpretazione della canzone da parte dell'autore. Può essere usata per scopi di studio, insegnamento e ricerca.

La tab è liberamente riproducibile in forum, blog, siti web (ad eccezione degli archivi di tablature online) e stampabile. Non è obbligatorio ma molto gradito citare la fonte (cioè IndyTab), meglio con un link di rimando al nostro sito.
ACCORDATORE
Per accordare la tua chitarra puoi usare il nostro accordatore online
TAB REQUEST
Stai cercando una tablatura? Suggeriscila compilando il modulo sottostante!

Gruppo
Titolo
Tua Mail

(la tua mail verrà usata per ricontattarti quando la tablatura sarà online)
DELLO STESSO GRUPPO

Punkreas // Occhi Puntati

Tablatura tratta dall'album: 90-93

(clicca qui per la legenda)

     A    D    G    C     F     E   G(X)
e|---------------------------------------|
B|---------------------------------------|
G|--------7---------5-----10----9---12---|
D|---7----7----5----5-----10----9---12---|
A|---7----5----5----3-----8-----7---10---|
E|---5---------3-------------------------|


--------------------------------------------------------------------------
Grazie a GIÒ per la realizzazione di questa tab
--------------------------------------------------------------------------


RIFF:
e|---------------|
B|---------------|
G|---------------|
D|---------------|
A|---2--3--2-----|
E|---------------|



STROFA:

[A] D                  G                C            RIFF 
    Siamo alle solite, occhi puntati su quei capelli colorati

A                         D
gente che giudica sul tuo modo di vestire

    G                       C          RIFF   [A]
per noi son solo stronzi cerca di compatire

D                       G
Guardia arresti quello, sa cosa faceva?

  C           RIFF
Fumava uno spinello!

A                    D
E ancora prima che arrivi la sera

G            C          RIFF
per il paese tu sei uno che si pera.



RITORNELLO:

   A                      F
Ma non importa tanto siam noi il nostro futuro

  C                   G+G(X)
e chi ci giudicava la piglierà nel culo

   A                       F
la nostra testa è questa e non si può cambiare

    C                       D            E
col desiderio di occupare e tanta voglia di fumare!

   A                      F
Ma non importa tanto siam noi il nostro futuro

  C                   G+G(X)
e chi ci giudicava la piglierà nel culo

   A                       F
la nostra testa è questa e non si può cambiare

    C                       D            E
col desiderio di occupare e tanta voglia di fumare!



STACCO: 
(due volte)
e|----------------------------------------------------------------|
B|----------------------------------------------------------------|
G|----------------------------------------------------------------| 
D|--------6-7-6-----------6-7-6-----------4-5-4-------------------|
A|----------------------------------------------------------2-3-2-|
E|----------------------------------------------------------------|
   [A]A..         [D]D..          [G]G..          [C][C][C]



STROFA:

   A                   D
Ma quel che fa paura è che fra questa gente

   G                       C             RIFF
ci son tanti ragazzi senza palle e senza mente

   A                      D
in cerca disperata di una figa in discoteca

   G                           C                 RIFF   [A]
mentre tu sei in galera perché avevi in tasca un deca.

D                       G
Guardia arresti quello, sa cosa faceva?

  C           RIFF
Fumava uno spinello!

A                    D
E ancora prima che arrivi la sera

G            C          RIFF
per il paese tu sei uno che si pera.



STACCO:
(accordi in palm muted) 
A  F  C  G+G(X)
A  F  C  D  E



SOLO: 
e|----------------------------------------------|
B|----------------------------------------------|
G|----------------------------------------------|
D|-/7-7-7~--/5-5-5~-----------/5-5-5~----5-6----|
A|-------------------/7-7-7~-----------7--------|
E|----------------------------------------------|
    A        F        C        G

e|----------------------------------------------|
B|----------------------------------------------|
G|----------------------------------------------|
D|-/7-7-7~--/5-5-5~-----------/5-5-5~----5-6----|
A|-------------------/7-7-7~-----------7--------|
E|----------------------------------------------|
    A        F        C        D       E

e|---------------------------------------------------------|
B|---------------------------------------------------------|
G|---------------------------------------------------------|
D|-7-7-5~-----5-6-7-7-5~-----5-6-7-7-5~------5-------------|
A|----------7--------------7---------------7---7-5-5-3~----|
E|---------------------------------------------------------|
   A              F              C               G

e|------------------------------------------------|
B|------------------------------------------------|
G|------------------------------------------------|
D|-------5-5-7~---------5-5-7~---------5-5-7~-----|
A|-5-6-7----------5-6-7----------5-6-7------------|
E|------------------------------------------------|
         A              F              C

e|--------------------------|
B|--------------------------|
G|-------------5-7b9r7-5----|
D|-------5-6-7-----------7--|
A|-5-6-7--------------------|
E|--------------------------|
         D       E      [A]



STROFA:
(ripetere la prima strofa)



RITORNELLO:
(ripetere il ritornello)



OUTRO:
[A]
COMMENTA QUESTA TABLATURA
Devi avere JavaScript attivato per poter commentare! (misura antispam)