IndyTab Logo

BETA VERSION - 321 TABS DISPONIBILI

Cerca una tablatura nel nostro archivio:

Gruppo Canzone


Elenco dei gruppi presenti su IndyTab
Lista di tutte le tablature di IndyTab
DISCLAIMER
Questa tablatura rappresenta l'interpretazione della canzone da parte dell'autore. Pu essere usata per scopi di studio, insegnamento e ricerca.

La tab liberamente riproducibile in forum, blog, siti web (ad eccezione degli archivi di tablature online) e stampabile. Non obbligatorio ma molto gradito citare la fonte (cio IndyTab), meglio con un link di rimando al nostro sito.
ACCORDATORE
Per accordare la tua chitarra puoi usare il nostro accordatore online
TAB REQUEST
Stai cercando una tablatura? Suggeriscila compilando il modulo sottostante!

Gruppo
Titolo
Tua Mail

(la tua mail verr usata per ricontattarti quando la tablatura sar online)
DELLO STESSO GRUPPO

Punkreas // Ac Toro

Tablatura tratta dall'album: Paranoia E Potere

(clicca qui per la legenda)

(clicca qui per il video)

    Dm   Bb   G   F   C    A       F   C   D   Bb  G
e|--5----6----3---8---8----5---|---------------------|
B|--6----6----3---10--8----5---|---------------------|
G|--7----7----4---10--9----6---|--10------7----------|
D|--7----8----5---10--10---7---|--10--10--7---8---5--|
A|-(5)--(8)--(5)-(8)-(10)-(7)--|--8---10--5---8---5--|
E|------(6)--(3)-----(8)--(5)--|------8-------6---3--|
         accordi ska                accordi punk

--------------------------------------------------------------------------


INTRO:
(accompagnamento ska)

e|--------5~-------|
B|-----6-----------|
G|--7--------------|
D|-----------------|x3
A|-----------------|
E|-----------------|
          Dm Bb

e|--------5~-------|
B|-----6-----------|
G|--7--------------|
D|-----------------|
A|-----------------|
E|-----------------|
          Dm [Bb]


e|-----5--8-6------5-5-5-5---------------5--8-6--------|
B|---6-----------6---------8-8-----6---6---------------|
G|-7-----------7---------------------7-----------------|
D|-----------------------------------------------------|
A|-----------------------------------------------------|
E|-----------------------------------------------------|
       Dm   Bb     Dm        G           Dm   Bb

e|--8----8-10-8----8-10-8----8-10-8----8---------------|
B|----10--------10--------10--------10-----------------|
G|-----------------------------------------------------|
D|-----------------------------------------------------|
A|-----------------------------------------------------|
E|-----------------------------------------------------|
    F                   C



STROFA:
(ritmo ska)

Dm                         Bb
Macabra festa in quel dell'arena di Spagna

Dm                         G
sadismo e perversione e un cumulo di grida

Dm                        Bb
c' anche il re seduto insieme alla sua cagna

     F                           C
si apprestano a guardare ci che chiamano corrida

Dm                   Bb
Ci sono sotto dei contratti da milioni

Dm                   G
e per lo stato  un evento nazionale

Dm                Bb
ed affluiscono migliaia di coglioni

       F                        C
non si riesce pi a capir chi  l'uomo e l'animale e allora



RITORNELLO:
(ritmo ska)

Dm       Bb        F C
Aca toro aca toro

Dm       Bb        F C
Aca toro aca toro

Dm       Bb       F             C
Aca toro aca toro el vangel del Boro Boro

Dm       Bb        [F][F][F] C..
mata tu toreador



STACCO:
(accompagnamento ska)

e|-----5--8-6------5-5-5-5---------------5--8-6--------|
B|---6-----------6---------8-8-----6---6---------------|
G|-7-----------7---------------------7-----------------|
D|-----------------------------------------------------|
A|-----------------------------------------------------|
E|-----------------------------------------------------|
       Dm   Bb     Dm        G           Dm   Bb

e|--8----8-10-8----8-10-8----8-10-8----8---------------|
B|----10--------10--------10--------10-----------------|
G|-----------------------------------------------------|
D|-----------------------------------------------------|
A|-----------------------------------------------------|
E|-----------------------------------------------------|
    F                   C



STROFA:
(ritmo ska)

Dm                     Bb
Per loro ci vuol dire rose rosse e baci

Dm                    G
per noi son solamente tanti macellai

Dm                      Bb
ma tu sei ancora peggio perch guardi e taci

  F                           C
e credi che comunque il tocco poi non pagherai



RITORNELLO:
Ripetere il ritornello.



PONTE:
(accordi ska)

[Dm] [Dm][Dm] [A][A]

[Dm] [Dm][Dm] [Bb][Bb]
               Ol

[Dm] [Dm][Dm] [A][A]

[Dm] [Dm][Dm] [Bb][Bb]
              zapata

[Dm] [Dm][Dm] [A][A]

[Dm] [Dm][Dm] [Bb][Bb]
              espadrillas

[Dm] [Dm][Dm] [A][A] Bb C

F                    C
E tutti insieme attendiamo la giornata

Dm                    Bb
e per il toro sia una gran rivoluzione

F                    C
dita incrociate aspettando l'incornata

Dm                  Bb         
addio toreador e in culo alla nazione





STACCO:
(accordi punk)

e|-----5--8-6------5-5-5-5---------------5--8-6--------|
B|---6-----------6---------8-8-----6---6---------------|
G|-7-----------7---------------------7-----------------|
D|-----------------------------------------------------|
A|-----------------------------------------------------|
E|-----------------------------------------------------|
       D..  Bb..   D..       G..         D..  Bb..

e|--8----8-10-8----8-10-8----8-10-8----8---------------|
B|----10--------10--------10--------10-----------------|
G|-----------------------------------------------------|
D|-----------------------------------------------------|
A|-----------------------------------------------------|
E|-----------------------------------------------------|
    F(p.m.)             C



RITORNELLO:
Ripetere il ritornello.



SOLO:
(accompagnamento ska)
e|-/5-5-5--/5-5-5--/5-5-5-----------8-8-------------------------|
B|-/6-6-6--/6-6-6--/6-6-6---------6-8-8--6----------------------|
G|-------------------------7----7----------7--------------------|
D|----------------------------------------------5-5-5-3---------|
A|------------------------------------------------------5-5-5---|
E|--------------------------------------------------------------|
   Dm              Bb               Dm          G                

e|--------------------------------------------------------------|
B|--------------------------------------------------------------|
G|--------------------------------------------------5-5---------|
D|------3-3-5-5-3-2-----3-3-5-5-3-2-----3-3-5-5-7-7-----7-7-----|
A|--5-5-------------5-5-------------5-5-------------------------|
E|-|p.m.|-------------------------------------------------------|
    Dm              Bb              F               C

 (La nota con * viene suonata facendo un pick harmonic)
e|--------------------------------------------------------------|
B|---------------------------------------------6-6--8-8---------|
G|--5--7b9*----9r-7----7p5---5-7----7b9-5---7--7-7-------7------|
D|-------------------------7------------------------------------|
A|--------------------------------------------------------------|
E|--------------------------------------------------------------|
                  Dm           Bb       Dm        G

e|--------------------------------------------------------------|
B|------------------------------5---7---8----10-----------------|
G|-7b-7----7p5---5-7---7p5---5--7b--9b--10b--12b----------------|
D|-------------7-----------7------------------------------------|
A|--------------------------------------------------------------|
E|--------------------------------------------------------------|
      Dm           Bb           F       C



PONTE:
Ripetere il ponte.



OUTRO:
(ska e distorto insieme, distorto con pennate lasciate andare)

F                    C
E tutti insieme attendiamo la giornata

Dm                    Bb
e per il toro sia una gran rivoluzione

F                    C
dita incrociate aspettando l'incornata

Dm                  Bb          
addio toreador e in culo alla nazione


e|--------5~-----------|
B|-----6---------------|
G|--7------------------|
D|---------------------|
A|---------------------|
E|---------------------|
 [Dm] [Dm][Dm](ska)
                    Ol!
VIDEO

Se il video non dovesse essere pi disponibile scrivi a indytab@googlemail.com. Grazie!
COMMENTA QUESTA TABLATURA
Devi avere JavaScript attivato per poter commentare! (misura antispam)