IndyTab Logo

BETA VERSION - 321 TABS DISPONIBILI

Cerca una tablatura nel nostro archivio:

Gruppo Canzone


Elenco dei gruppi presenti su IndyTab
Lista di tutte le tablature di IndyTab
DISCLAIMER
Questa tablatura rappresenta l'interpretazione della canzone da parte dell'autore. Può essere usata per scopi di studio, insegnamento e ricerca.

La tab è liberamente riproducibile in forum, blog, siti web (ad eccezione degli archivi di tablature online) e stampabile. Non è obbligatorio ma molto gradito citare la fonte (cioè IndyTab), meglio con un link di rimando al nostro sito.
ACCORDATORE
Per accordare la tua chitarra puoi usare il nostro accordatore online
TAB REQUEST
Stai cercando una tablatura? Suggeriscila compilando il modulo sottostante!

Gruppo
Titolo
Tua Mail

(la tua mail verrà usata per ricontattarti quando la tablatura sarà online)
DELLO STESSO GRUPPO

Porno Riviste // Sogno

Tablatura tratta dall'album: Cosa Facciamo?

(clicca qui per la legenda)

(clicca qui per il video)

    A  C  G  F#  G#  D  D#  E  B F#(IX)
e|-------------------------------------|
B|-------------------------------------|
G|-----5-------------7--8---9--4---11--|
D|--7--5--5--4---6---7--8---9--4---11--|
A|--7--3--5--4---6---5--6---7--2---9---|
E|--5-----3--2---4---------------------|


--------------------------------------------------------------------------


INTRO:
A C G A (C)(B)
A+[A] C+[C] G+[G] A+[A] (C)(B)
A C G A (C)(B)
A C G A (C)(B)
G#/A G#/A G#/A [G#][A]



STROFA:

A..         
Come tanti omini una colonna dal passato

F#..
buio nella notte dove il buio c'è già stato

D..
caschi e manganelli come colla sulla gente

E          D#/E        D#/E       D#/E
chiusi in una gabbia ma nessuno dice niente.

A
Blocca il movimento con inutili domande

F#
mani sul tuo culo con quell'alito pesante

D
come tanti omini una fiammata dal passato

E         D#/E          D#/E           D#/E      A
sangue nella notte dove il sangue c'è già stato.



RITORNELLO:

A                     D
Poi pigliando a calci me

               E
non hai capito che

                   F#
non si cancella il sogno

    D              E
che vive insieme a me

F#        D              E
sogno che vive insieme a me



SOLO:
e|--------------------------------------------------|
B|--------------------------------------------------|
G|-------6-7-6h7p6---------6-7-6h7p6----------------|
D|--7-9-------------9-7-9------------9-7-6----------|
A|--------------------------------------------------|
E|--------------------------------------------------|
   [A]                    [A]                   (A)

e|--------------------------------------------------|
B|--------------------------------------------------|
G|-------6-7-6h7p6---------6-7-6h7p6----------------|
D|--7-9-------------9-7-9------------9-7-6----------|
A|--------------------------------------------------|
E|--------------------------------------------------|
   [F#]                   [F#]                  (F#)

e|--------------------------------------------------|
B|--------------------------------------------------|
G|-------6-7-6h7p6---------6-7-6h7p6----------------|
D|--7-9-------------9-7-9------------9-7-6----------|
A|--------------------------------------------------|
E|--------------------------------------------------|
   [D]                    [D]                    (D)

e|--------------------------------------------------|
B|--------------------------------------------------|
G|-------6-7-6h7p6---------6-7-6h7p6----------------|
D|--7-9-------------9-7-9------------9-7-6----------|
A|--------------------------------------------------|
E|--------------------------------------------------|
   [E]    [E]          [E]    [E]  [E]  [E]


e|--------------------------------------------------|
B|--------------------------------------------------|
G|--9-6-7-7p6---6---------9-6-7-7p6-----6-----------|
D|------------9---9-7----------------9--------------|
A|--------------------------------------------------|
E|--------------------------------------------------|
    A

e|--------------------------------------------------|
B|--------------------------------------------------|
G|--9-6-7-7p6---6---------9-6-7-7p6-----6-----------|
D|------------9---9-7----------------9--------------|
A|--------------------------------------------------|
E|--------------------------------------------------|
    F#

(* ripetere più volte la nota)
e|--------------------------------------------------|
B|--------------------------------------------------|
G|--9-6-7-9-9/11-9-7---6-7-6-7-9-9/11*--------------|
D|--------------------------------------------------|
A|--------------------------------------------------|
E|--------------------------------------------------|
    D

e|--------------------------------------------------|
B|--------------------------------------------------|
G|-/13*----------/14*----------14-13-11-13p11/9-----|
D|--------------------------------------------------|
A|--------------------------------------------------|
E|--------------------------------------------------|
    E

e|---------------------------------------------------|
B|---------------------------------------------------|
G|--11p9-7-9p7-6--7p6--------------------------------|
D|--------------------9-7----------------------------|
A|---------------------------------------------------|
E|---------------------------------------------------|
                        [A] <-- primo accordo della strofa



STROFA:

[A]                      [A]            
Come ad una festa ti affittavano il locale

(A)[F#]                    [F#]
    oggi la stazione poi la banca nazionale,

(F#)[D]                       [D]
     come tanti omini tutti in fila dal passato
 
(D)[E]           [E]        [E]    [E]    [E]  [E]
    tante facce infami che comunque tu hai votato.

A
Chi si siede in alto lo si vede bene sotto

F#
tu vendevi fumo con i cani poliziotto

D
non ho mai capito dalle facce della gente

E         D#/E          D#/E         D#/E       A.. A..
quello che comunque non ha mai cambiato niente.



RITORNELLO:

A(p.m.)               D(p.m.)
Poi pigliando a calci me

               E(p.m.)
non hai capito che

                   F#
non si cancella il sogno

    D              E
che vive insieme a me

F#        D              E
sogno che vive insieme a me

F#        D              E
sogno che vive insieme a me

F#        D              E
sogno che vive insieme a me



OUTRO:
F#(IX).. [F#]
VIDEO

Se il video non dovesse essere più disponibile scrivi a indytab@googlemail.com. Grazie!
COMMENTA QUESTA TABLATURA
Devi avere JavaScript attivato per poter commentare! (misura antispam)