IndyTab Logo

BETA VERSION - 321 TABS DISPONIBILI

Cerca una tablatura nel nostro archivio:

Gruppo Canzone


Elenco dei gruppi presenti su IndyTab
Lista di tutte le tablature di IndyTab
DISCLAIMER
Questa tablatura rappresenta l'interpretazione della canzone da parte dell'autore. Può essere usata per scopi di studio, insegnamento e ricerca.

La tab è liberamente riproducibile in forum, blog, siti web (ad eccezione degli archivi di tablature online) e stampabile. Non è obbligatorio ma molto gradito citare la fonte (cioè IndyTab), meglio con un link di rimando al nostro sito.
ACCORDATORE
Per accordare la tua chitarra puoi usare il nostro accordatore online
TAB REQUEST
Stai cercando una tablatura? Suggeriscila compilando il modulo sottostante!

Gruppo
Titolo
Tua Mail

(la tua mail verrà usata per ricontattarti quando la tablatura sarà online)
DELLO STESSO GRUPPO

Porno Riviste // + Niente Ci Sarà

Tablatura tratta dall'album: Tensione 16

(clicca qui per la legenda)

(clicca qui per il video)

     B   G   A   A#  F#  C   D
e|---------------------------------|
B|---------------------------------|
G|-----------------------5---7-----|
D|---9---5---7---8---4---5---7-----|
A|---9---5---7---8---4---3---5-----|
E|---7---3---5---6---2-------------|


--------------------------------------------------------------------------


INTRO:
(accordi stoppati)
B G A A#

(accordi aperti)
e|--------------9---10------------------------------------|
B|---------------------12------------------10---12-8------|
G|-----------11-------------------------11----------------|
D|---9-11-12--------------------9-11-12-------------------|
A|--------------------------------------------------------|
E|--------------------------------------------------------|
                B                          G

e|--------------------------------------------------------|
B|---10-8-7---7------8-7-----/7----8-7--------------------|
G|----------9------------9-7-----------9\-----------------|
D|--------------------------------------------------------|
A|--------------------------------------------------------|
E|--------------------------------------------------------|
              D               A(p.m.)  A#(p.m.)

(accordi aperti) 
B G F#..



STROFA 1:


Eccomi qua un'altra volta a condannare


chi non ha una vera risposta

        B(p.m)
semplicemente c'è qualcuno e

        G(p.m)                          A(p.m)
c'è qualcosa che non si dà e che non ti dà

            D
una vera risposta
 
                  C                      B
e tutto questo mi basta solo una vera risposta

G                F#
sai dopo cosa ti resta?



STROFA 2:
          
           B                            G 
Non voglio più sentirmi dire adesso hai tutto e so chi sei

           A                         D
sono il re stronzo della montagna di merda

A#           B
E ogni impressione e ogni illusione

      G                       A
nella vita che ti dai cosa ti dai?

                 D                      C
se la realtà è diversa se cerchi una risposta

                   B      G                F#
e vuoi trovarla in fretta sai dopo cosa ti resta?



RITORNELLO:

D                  A              B
Non voglio vincere più non vivere più


nella paura di vivere niente

D                  A                      B
non posso dirti di sì non voglio dirti di no

                         G 
se tutto quello che ho intorno è il niente

B                     G
non voglio più una teoria o una strada

B                     G
neanche riscontri con la mia identità

B                   G
nel mio destino non c'è più niente

A                        A#              B G F#.. 
non c'è più niente e più niente ci sarà...



STROFA 3:
(p.m.)

         B
Sordo di giorno e solo di notte

        G
sai che differenza fa?

        A                        D
solo riscontri con una propria coscienza

A#         B
E quanti dolori e quante immagini

   G 
passate dentro mai?

     A                      
solo perchè 

(accordi aperti)

                D                      C
pretendi una risposta ma la realtà è diversa

                    G
hai già una vera risposta

A                D
E allora cosa ti costa

                  C
se ottieni una risposta

                B
e la regola è diversa

G                F#
sai dopo cosa ti resta?



RITORNELLO: 

D                  A              B
Non voglio vincere più non vivere più


nella paura di vivere niente

D                  A                      B
non posso dirti di sì non voglio dirti di no

                         G 
se tutto quello che ho intorno è il niente

B(p.m.)               G(p.m.)
non voglio più una teoria o una strada

B(p.m.)               G(p.m.)
neanche riscontri con la mia identità

B(p.m.)             G(p.m.)
nel mio destino non c'è più niente

A(p.m.)                  A#(p.m.)        
non c'è più niente e più niente ci sarà...

B  G  A  A#
         più niente ci sarà... 

B  G  A  A#
         più niente ci sarà... 



OUTRO: 
(accordi stoppati)
B G A A#

(accordi aperti)
e|--------------9---10------------------------------------|
B|---------------------12------------------10---12-8------|
G|-----------11-------------------------11----------------|
D|---9-11-12--------------------9-11-12-------------------|
A|--------------------------------------------------------|
E|--------------------------------------------------------|
                B                          G

e|--------------------------------------------------------|
B|---10-8-7---7------8-7-----/7----8-7--------------------|
G|----------9------------9-7-----------9------------------|
D|--------------------------------------------------------|
A|--------------------------------------------------------|
E|--------------------------------------------------------|
              D               A(p.m.)  A#(p.m.)

e|--------------9---10-----------9-10-9-------------------|
B|---------------------12---------------12-10---12-8------|
G|-----------11-------------------------------------------|
D|---9-11-12----------------------------------------------|
A|--------------------------------------------------------|
E|--------------------------------------------------------|
                B                          G
                                   
e|--------------------------------------------------------|
B|---10-8-7---7---------------------(---p.m.---)----------|
G|----------9--------9-7-9-7-6-------6-7-6-7-6------------|
D|--------------------------------------------------------|
A|--------------------------------------------------------|
E|--------------------------------------------------------|
              D              A(p.m.) A#(p.m.)    [B][B][B][B]
VIDEO

Se il video non dovesse essere più disponibile scrivi a indytab@googlemail.com. Grazie!
COMMENTI
1/2/10 16:59, marco:
riuscireste a inserire anche la tab del giro di basso???grazie!!

24/5/10 11:58, Alberto (Staff IndyTab):
Ciao Marco,
mi spiace ma al momento non abbiamo in programma di realizzare anche tabulature di basso. Magari qualcuno ti può consigliare un sito dove poterla recuperare :)
Un saluto!

COMMENTA QUESTA TABLATURA
Devi avere JavaScript attivato per poter commentare! (misura antispam)