IndyTab Logo

BETA VERSION - 321 TABS DISPONIBILI

Cerca una tablatura nel nostro archivio:

Gruppo Canzone


Elenco dei gruppi presenti su IndyTab
Lista di tutte le tablature di IndyTab
DISCLAIMER
Questa tablatura rappresenta l'interpretazione della canzone da parte dell'autore. Può essere usata per scopi di studio, insegnamento e ricerca.

La tab è liberamente riproducibile in forum, blog, siti web (ad eccezione degli archivi di tablature online) e stampabile. Non è obbligatorio ma molto gradito citare la fonte (cioè IndyTab), meglio con un link di rimando al nostro sito.
ACCORDATORE
Per accordare la tua chitarra puoi usare il nostro accordatore online
TAB REQUEST
Stai cercando una tablatura? Suggeriscila compilando il modulo sottostante!

Gruppo
Titolo
Tua Mail

(la tua mail verrà usata per ricontattarti quando la tablatura sarà online)
DELLO STESSO GRUPPO

Derozer // Cielo Nero

Tablatura tratta dall'album: Chiusi Dentro

(clicca qui per la legenda)

(clicca qui per il video)

    A   F   C   G   B   E   D  F(I) G(III) G#
e|----------------------------------------------|
B|----------------------------------------------|
G|------10------12------9---7-------------------|
D|--7---10--10--12--9---9---7---3-----5----6----|
A|--7---8---10--10--9---7---5---3-----5----6----|
E|--5-------8-------7-----------1-----3----4----|


--------------------------------------------------------------------------


INTRO:

e|-------------------------------------------------------------|
B|-------------------------------------------------------------|
G|---9-7---------9-7---------9-7----10----9-7----10------------|
D|-------10-7--------10-7--------10-----------10---------------|
A|-------------------------------------------------------------|
E|-------------------------------------------------------------|


e|-------------------------------------------------------------|
B|-------------------------------------------------------------|
G|---9-7---------9-7---------9-7----10/12-10-9-10-9--7---------|
D|-------10-7--------10-7--------10--------------------10-9-7--|
A|-------------------------------------------------------------|
E|-------------------------------------------------------------|
                                                            A

e|-------------------------------------------------------------|
B|-------------------------------------------------------------|
G|---9p7-9p7---------9p7-9p7----10---9-7----10----9-7----------|
D|-----------10-7------------10----------10-----------10-7-----|
A|-------------------------------------------------------------|
E|-------------------------------------------------------------|
                                F                        A

e|-------------------------------------------------------------|
B|-------------------------------------------------------------|
G|----9-7------------9-7----10/12-10-9-10-9--7-----------------|
D|--------10-7-----------10--------------------10-9-7----------|
A|-------------------------------------------------------------|
E|-------------------------------------------------------------|
                               G          F         A       

e|-------------------------------------------------------------|
B|-------------------------------------------------------------|
G|---9p7-9p7---------9p7-9p7----10---9-7----10----9p7-9p7------|
D|-----------10-7------------10----------10---------------10-7-|
A|-------------------------------------------------------------|
E|-------------------------------------------------------------|
                                F                            A

e|-------------------------------------------------------------|
B|-------------------------------------------------------------|
G|--9p7-9p7---------9-7----10/12-10-9-10-9--7------------------|
D|----------10-7--------10--------------------10-9-7-----------|
A|-------------------------------------------------------------|
E|-------------------------------------------------------------|
                               G          F        A..     
                (seconda chitarra non si ferma)--> A(p.m.)


STROFA:

A                 (E)F                   (B)C
Ti credi superiore   solo per la nazione

                        (D)E             (C)(B)
che è scritta sulla tua carta d'identità

A                      (E)F
Pensi che il mondo giri   attorno al tuo colore

        (B)C               (D)E        (C)(B)
e tutto il resto sia solo che banalità



RITORNELLO:

A                     F
Cosa farete quando il cielo sarà nero

C                       G             (C)(B)
quando nessuno al mondo più sorriderà

A                  F
cosa sarete con in mano una bandiera

C                 G        F      A
cosa farete della vostra superiorità



STACCO:

e|-------------------------------------------------------------|
B|-------------------------------------------------------------|
G|---9-7-----------9-7----10----9-7----10----------------------|
D|-------10-7----------10-----------10-------------------------|
A|-------------------------------------------------------------|
E|-------------------------------------------------------------|
    A                     F

e|-------------------------------------------------------------|
B|-------------------------------------------------------------|
G|---9-7---------9-7---------9-7----10/12-10-9-10-9--7---------|
D|-------10-7--------10-7--------10--------------------10-9-7--|
A|-------------------------------------------------------------|
E|-------------------------------------------------------------|
            A                          G          F         A     

e|-------------------------------------------------------------|
B|-------------------------------------------------------------|
G|-9p7-9p7--------9p7-9p7----10--9p7-9p7----10---9p7-9p7-------|
D|---------10-7-----------10-------------10--------------10-7--|
A|-------------------------------------------------------------|
E|-------------------------------------------------------------|
                             F                              A

e|-------------------------------------------------------------|
B|-------------------------------------------------------------|
G|--9p7-9p7---------9-7-----10/12-10-9-10-9--7-----------------|
D|----------10-7--------10---------------------10-9-7----------|
A|-------------------------------------------------------------|
E|-------------------------------------------------------------|
                               G          F         A.. 
                 (seconda chitarra non si ferma)--> A(p.m.)  



PONTE:

(in p.m.)

A                 F(I)
Essere superiore, che può significare

C                      G(III)                [G#][G#]
se poi avveleni l'aria che ti devi respirare


(accordi aperti)

A                 F(I)
essere superiore, che cosa può valere

C                       G(III)            (G#)
se poi avveleni il cibo che devi mangiare



STROFA:
Ripetere la prima strofa.



RITORNELLO:
Ripetere il ritornello.



OUTRO:
Ripetere lo stacco finendo con (C)(B)A..
VIDEO

Se il video non dovesse essere più disponibile scrivi a indytab@googlemail.com. Grazie!
COMMENTA QUESTA TABLATURA
Devi avere JavaScript attivato per poter commentare! (misura antispam)