IndyTab Logo

BETA VERSION - 321 TABS DISPONIBILI

Cerca una tablatura nel nostro archivio:

Gruppo Canzone


Elenco dei gruppi presenti su IndyTab
Lista di tutte le tablature di IndyTab
DISCLAIMER
Questa tablatura rappresenta l'interpretazione della canzone da parte dell'autore. Pu˛ essere usata per scopi di studio, insegnamento e ricerca.

La tab Ŕ liberamente riproducibile in forum, blog, siti web (ad eccezione degli archivi di tablature online) e stampabile. Non Ŕ obbligatorio ma molto gradito citare la fonte (cioŔ IndyTab), meglio con un link di rimando al nostro sito.
ACCORDATORE
Per accordare la tua chitarra puoi usare il nostro accordatore online
TAB REQUEST
Stai cercando una tablatura? Suggeriscila compilando il modulo sottostante!

Gruppo
Titolo
Tua Mail

(la tua mail verrÓ usata per ricontattarti quando la tablatura sarÓ online)
DELLO STESSO GRUPPO

Matrioska // Che VelocitÓ

Tablatura tratta dall'album: Stralunatica

(clicca qui per la legenda)

   A  E  F#m  D  B  F#m(IX) F F(VIII) Gm  A#  D#  F#  G#m  G  C   Am G#
e|-5--7---2---5--7----9-----1---8------3--6---6---2----4---3--8---5--4--|
B|-5--9---2---7--7----10----1---10-----3--6---8---2----4---3--8---5--4--|
G|-6--9---2---7--8----11----2---10-----3--7---8---3----4---4--9---5--5--|
D|-7--9---4---7--9----11----3---10-----5--8---8---4----6---5--10--7--6--|
A|-7--7---4---5--9----9-----3---8------5--8---6---4----6---5--10--7--6--|
E|-5------2------7----------1----------3--6-------2----4---3--8---5--4--|
                             accordi ska

   A  E  F#  D  A# F  G  D#  F#(IX) B  G# E(VII) C  F(VIII)
e|---------------------------------------------------------|
B|---------------------------------------------------------|
G|-----------7-----------8----11-----------9----------10---|
D|-7--2--4---7--8--3--5--8----11----9--6---9-----10---10---|
A|-7--2--4---5--8--3--5--6----9-----9--6---7-----10---8----|
E|-5--0--2------6--1--3-------------7--4---------8---------|
                   accordi punk

--------------------------------------------------------------------------

(S: chitarra ska, P: chitarra punk)


INTRO:
(chitarra punk + chitarra ska)

(ripetere pi¨ volte le note con *)
e|----------------------------------------------------|
B|--5/10*-----10*-----10*-----10-10-10-10--5/---------|
G|----------------------------------------------------|
D|----------------------------------------------------|
A|----------------------------------------------------|
E|----------------------------------------------------|
S:    A       E       F#m     D
P:    A       E       F#      D

e|----------------------------------------------------|
B|----10*-----10*-----10*-----10-10-10-10--5/---------|
G|----------------------------------------------------|
D|----------------------------------------------------|
A|----------------------------------------------------|
E|----------------------------------------------------|
S:    A       E       F#m     [F]   [F]   [F]   [F]
P:    A       E       F#      [F]   [F]   [F]   [F]

e|----------------------------------------------------|
B|----10*-----10*-----10*-----10-10-10-10--5/---------|
G|----------------------------------------------------|
D|----------------------------------------------------|
A|----------------------------------------------------|
E|----------------------------------------------------|
S:     A       E       F#m     D
P:     A       E       F#      D

e|----------------------------------------------------|
B|----10*-----10*-----10*////////////-----------------|
G|----------------------------------------------------|
D|----------------------------------------------------|
A|----------------------------------------------------|
E|----------------------------------------------------|
S:    A       E       D..
P:    A       E       D..



STROFA
(chitarra ska)

A        E       F#m(IX)
Che mattinate frenetiche guarda qua

A          E       F#(IX)
non vedo l'ora che sia l'universitÓ

D              A                D                  E
volti diversi, grandi discorsi, e poi ti trovi giÓ lÓ

A       E         F#m(IX)
Tanto vedrete con noi il mondo cambierÓ 

A           E         F#m(IX)
si ma l'hai vista chi Ŕ quella tipa lÓ

D..       D..    A..        A..    D..    D..        E
facce sconvolte, pianti e rivolte, domani poi si vedrÓ...

[E]
 ma che velocitÓ!



RITORNELLO:

S: A            E          F#m           D        A
P: A            E          F#            D        A
   Dimmi cosa c'Ŕ da fare, per domani un'interrogazione
 
S:         E           F#m        [F][F][F][F]
P:         E           F#         [F][F][F][F]
  un altro compito dai dettami questa versione 

S: A        E            F#m          D             A
P: A        E            F#           D             A
   E non mi dire che sei ancora sotto per quella bambina

S:        E           D.. 
P:        E           D..                 (pickslide) 
   lascia stare ne parliamo domattina...



STROFA:
(chitarra ska)

A      E       F#m(IX)
Sabato sera da me non ci sono i miei

A         E           F#m(IX)
oh ma com'Ŕ che quest'ora non passa mai

D..     D..        A..      A..
la campanella Ŕ la cosa pi¨ bella

D..       D..      E
che fuori ci porterÓ

A        E           F#m(IX)
L'autogestione tranquilli che ci sarÓ

A         E          F#m(IX)
certi argomenti richiedono serietÓ

D..       D..  A..       A..
giovani attivi nei collettivi

D..       D..     E
per non lasciarsi mai

[E]
 ma che velocitÓ



RITORNELLO:

S: A            E          F#m           D        A
P: A            E          F#            D        A
   Dimmi cosa c'Ŕ da fare, per domani un'interrogazione
 
S:         E           F#m        [F][F][F][F]
P:         E           F#         [F][F][F][F]
  un altro compito dai dettami questa versione 

S: A        E            F#m          D             A
P: A        E            F#           D             A
   E non mi dire che sei ancora sotto per quella bambina

S:        E           D                F(VIII) 
P:        E           D                F(VIII)
   lascia stare ne parliamo domattina...



STACCO:

(ripetere pi¨ volte le note con *)
e|--1/6*------6*------6*------6-6-6-6--1/-------------|
B|----------------------------------------------------|
G|----------------------------------------------------|
D|----------------------------------------------------|
A|----------------------------------------------------|
E|----------------------------------------------------|
S:    A#      F       Gm      D#
P:    A#      F       G       D#

e|----6*------6*------6*------1/6*--------------------|
B|----------------------------------------------------|
G|----------------------------------------------------|
D|----------------------------------------------------|
A|----------------------------------------------------|
E|----------------------------------------------------|
S:    A#      F       D#        F#(IX)
P:    A#      F       D#        F#(IX)



PONTE:
(chitarra punk)

[B]
Ora pensarci non serve che male fa

[B]
si ma se solo potessi tronare lÓ

[E(VII)]    [B]         [B][B][E(VII)]
un'ora sola in quella scuola

               [F#(IX)]  [F#(IX)][F#(IX)][F#(IX)]  [F#(IX)]
sai quanto pagherei


ma che velocitÓ



RITORNELLO:

S: B            F#         G#m           E        B
P: B            F#         G#            E        B
   Dimmi cosa c'Ŕ da fare, per domani un'interrogazione
 
S:            F#          G#m      [G][G][G][G]
P:            F#          G#       [G][G][G][G]        
   un altro compito dai dettami questa versione 

S: B        F#           G#m          E             B
P: B        F#           G#           E             B
   E non mi dire che sei ancora sotto per quella bambina

S:        F#          E                  G 
P:        F#          E                  G 
   lascia stare ne parliamo domattina...



ULTIMO RITORNELLO:

(ripetere pi¨ volte le note con *)
e|--3/8*-----------8*---------8*------------8-8-8-8-3/-8*-|
B|--------------------------------------------------------|
G|--------------------------------------------------------|
D|--------------------------------------------------------|
A|--------------------------------------------------------|
E|--------------------------------------------------------|
S:    C            G          Am            F          C
P:    C            G          A             F          C
      Dimmi cosa c'Ŕ da fare, per domani un'interrogazione

e|----------8*----------8*----------8-8-8-8--3/-----------|
B|--------------------------------------------------------|
G|--------------------------------------------------------|
D|--------------------------------------------------------|
A|--------------------------------------------------------|
E|--------------------------------------------------------|
S:          G           Am         [G#][G#][G#][G#] 
P:          G           A          [G#][G#][G#][G#] 
   un altro compito dai dettami questa versione 

e|--8*-------8*-----------8*-----------8-8-8-8--3/---8*---|
B|--------------------------------------------------------|
G|--------------------------------------------------------|
D|--------------------------------------------------------|
A|--------------------------------------------------------|
E|--------------------------------------------------------|
S:  C        G            Am           F             C
P:  C        G            A            F             C
    E non mi dire che sei ancora sotto per quella bambina

e|---------8*----------8*-------------3/8*----8/21---21-21-21---|
B|--------------------------------------------------------------|
G|--------------------------------------------------------------|
D|--------------------------------------------------------------|
A|--------------------------------------------------------------|
E|--------------------------------------------------------------|
S:         G           F                G#      [C] [C][C][C]
P:         G           F                G#      [C] [C][C][C]  
    lascia stare ne parliamo domattina...
COMMENTA QUESTA TABLATURA
Devi avere JavaScript attivato per poter commentare! (misura antispam)