IndyTab Logo

BETA VERSION - 321 TABS DISPONIBILI

Cerca una tablatura nel nostro archivio:

Gruppo Canzone


Elenco dei gruppi presenti su IndyTab
Lista di tutte le tablature di IndyTab
DISCLAIMER
Questa tablatura rappresenta l'interpretazione della canzone da parte dell'autore. Può essere usata per scopi di studio, insegnamento e ricerca.

La tab è liberamente riproducibile in forum, blog, siti web (ad eccezione degli archivi di tablature online) e stampabile. Non è obbligatorio ma molto gradito citare la fonte (cioè IndyTab), meglio con un link di rimando al nostro sito.
ACCORDATORE
Per accordare la tua chitarra puoi usare il nostro accordatore online
TAB REQUEST
Stai cercando una tablatura? Suggeriscila compilando il modulo sottostante!

Gruppo
Titolo
Tua Mail

(la tua mail verrà usata per ricontattarti quando la tablatura sarà online)
DELLO STESSO GRUPPO

Vallanzaska // Loris E Efrem

Tablatura tratta dall'album: Cheope

(clicca qui per la legenda)

(clicca qui per il video)

     F   Bm   A#   G#    G   C#m    C    F7
e|---1----7----6----4----3----9-----8-----1-----|
B|---1----7----6----4----3----9-----8-----4-----|
G|---2----7----7----5----4----9-----9-----2-----|
D|--(3)--(9)--(8)--(6)--(5)--(11)--(10)--(1)----|
A|--(3)--(9)--(8)--(6)--(5)--(11)--(10)--(3)----|
E|--(1)--(7)--(6)--(4)--(3)--(9)---(8)---(1)----|


--------------------------------------------------------------------------

RIFF1:
(chitarra distorta)

e|--11------11---11--11------8------8---8--8-----|
B|--10------10---10--10------10-----10--10-10----|
G|-----------------------------------------------|
D|-----------------------------------------------|
A|-----------------------------------------------|
E|-----------------------------------------------|

RIFF2:
(chitarra distorta)

e|--13------13---13--13------10-----10--10-10----|
B|--12------12---12--12------12-----12--12-12----|
G|-----------------------------------------------|
D|-----------------------------------------------|
A|-----------------------------------------------|
E|-----------------------------------------------|



INTRO:

Una chitarra ripete x16
e|-----------------|
B|---6p4h6---------|  
G|-----------------|
D|-----------------|
A|-----------------|
E|-----------------|

Un'altra chitarra ripete x8
e|-----------------|
B|---6p4h6p4h6p4---|  
G|-----------------|
D|-----------------|
A|-----------------|
E|-----------------|



STROFA 1:

F
C'è un galletto nel quartiere cha fa quello che gli va

F
il suo nome è Loris

RIFF1
Ha un amico tutto uguale, tatuaggio col pugnale

F
lui si chiama Efrem

RIFF1
Ha un giubbotto tutto nero e si sente un caballero

F
il suo nome è Loris

RIFF1
E si sentono gia grandi han raggiunto i 16 anni



RITORNELLO:

Bm         A#       G#
"Che cazzo guardi? Sgomma! Vai via di qua!

Bm        A#      F
Ma senti questo! Guarda che faccia c'ha!"

Bm          A#    G#
Gli da una pizza e questa mano qua

Bm       A#         [F][F]
te la parcheggia in faccia...



STROFA 2:

Mettono bestemmie nella più pacifica frasetta

F
crolla la parrocchia

RIFF1
Vanno spesso in riva al lago per sputare sull'ochetta

F
che risate sai...

RIFF1
Sono alti più di te, la ragione sai qual'è?

F
Guardagli le scarpe...

RIFF1
Attenzione non sbagliare se ti va di conversare:



RITORNELLO: come sopra



ACCOMPAGNAMENTO ASSOLO: 

F  F  F  F  RIFF1  F  RIFF1  F



STACCO: come INTRO, in più una chitarra fa

XX F7..  x4 



STROFA 3:

XX   F7..
Alle sei del pomeriggio si ritrovano al parcheggio

G
pronti a gareggiare

RIFF2
Sono tutti allineati, la manopola è sudata

G
trema l'orrizzonte

RIFF2
Con lo scooter vanno via dando saggi di pazzia

G
"Stai attento al palo!"

RIFF2
Ora sono i salvatori dell'associazione donatori

G
Grande cuore, Loris!



RITORNELLO FINALE:

C#m        C       A#
"Che cazzo guardi? Sgomma! Vai via di qua!

C#m      C       G
Ma senti questo! Guarda che faccia c'ha!"

C#m        C     A#
Gli da una pizza e questa mano qua

C#m      C          G
te la parcheggia in faccia


C#m        C       A#
"Che cazzo guardi? Sgomma! Vai via di qua!

C#m      C       G
Ma senti questo! Guarda che faccia c'ha!"

C#m        C     A#
Gli da una pizza e questa mano qua

C#m      C          [G][G]    [G][G]
te la parcheggia in faccia
VIDEO

Se il video non dovesse essere più disponibile scrivi a indytab@googlemail.com. Grazie!
COMMENTA QUESTA TABLATURA
Devi avere JavaScript attivato per poter commentare! (misura antispam)