IndyTab Logo

BETA VERSION - 321 TABS DISPONIBILI

Cerca una tablatura nel nostro archivio:

Gruppo Canzone


Elenco dei gruppi presenti su IndyTab
Lista di tutte le tablature di IndyTab
DISCLAIMER
Questa tablatura rappresenta l'interpretazione della canzone da parte dell'autore. Può essere usata per scopi di studio, insegnamento e ricerca.

La tab è liberamente riproducibile in forum, blog, siti web (ad eccezione degli archivi di tablature online) e stampabile. Non è obbligatorio ma molto gradito citare la fonte (cioè IndyTab), meglio con un link di rimando al nostro sito.
ACCORDATORE
Per accordare la tua chitarra puoi usare il nostro accordatore online
TAB REQUEST
Stai cercando una tablatura? Suggeriscila compilando il modulo sottostante!

Gruppo
Titolo
Tua Mail

(la tua mail verrà usata per ricontattarti quando la tablatura sarà online)
DELLO STESSO GRUPPO

Cattive Abitudini // Magico

Tablatura tratta dall'album: Tutto Fa Parte Di Noi

(clicca qui per la legenda)

(clicca qui per il video)

     D   A   G   B   A#  C   C#
e|--------------------------------|
B|--------------------------------|
G|---7-----------4---3---5---6----|
D|---7---7---5---4---3---5---6----|
A|---5---7---5---2---1---3---4----|
E|-------5---3--------------------|


--------------------------------------------------------------------------


STROFA 1:

[D]        [A]      [G]           [A]
Dimmi cosa pensi di me che non so niente!

[D]         [A]    [G]            A..
Cosa puoi volere da me che non ho niente?

D              A        G            A 
Non puoi innamorarti di me sono un coglione!

D            A         G           A
So che sei bevuta e perciò non usi la ragione



RITORNELLO:

[D]                       B
MAGICO! Mi sentro proprio magico!
 
                G                   D       A
Dal fascino più stupido sò come finirà.. ah ah

D                         B
MAGICO! Mi sentro proprio magico!
 
                G                   D       A
Dal fascino più stupido sò come finirà.. ah ah



STACCO:

(Ripetere più volte ogni nota)

e|-----------------------------15--------15---------------------|
B|-------------15-------------------15--------15----------------|
G|--------------------------------------------------------------|
D|--------------------------------------------------------------|
A|--------------------------------------------------------------|
E|--------------------------------------------------------------|
   [D]



STROFA 2:

[D]       [A]      [G]           [A]
Dimi cosa pensi di me che non so niente

[D]         [A]      [G]            A..
Offrimi una birra perchè non ho più niente

D             A        G            A 
Tu puoi innamorarti di me se non ci vedi bene

D             A        G            A 
Tu puoi innamorarti di me ma non conviene



RITORNELLO: come sopra.



ASSOLO:

                  |-------- p.m.----------|
e|--------------------------------------------------|
B|-----------------10--0--7--0--5--0--3--0----------|
G|--------------------------------------------------|
D|--------------------------------------------------|
A|--------------------------------------------------|
E|--------------------------------------------------|
   [D]    [D]      D                        

   |----------------------- p.m.-----------------------|
e|------------------------------------------------------------|
B|--10--0--7--0--5--0--3--0-----10--0--7--0--5--0--3--0-------|
G|------------------------------------------------------------|
D|------------------------------------------------------------|
A|------------------------------------------------------------|
E|------------------------------------------------------------|
    B                           G
        
   |p.m.|    
e|-----------------------|
B|--10-----7h10p7--------|
G|-----------------7-----|
D|-----------------------|
A|-----------------------|
E|-----------------------|
    A             [A]

  (ripetere ogni nota più volte)
e|-----------------------------------|
B|--10--0--7--0--5--0--3--0----------|
G|-----------------------------------|
D|-----------------------------------|
A|-----------------------------------|
E|-----------------------------------|
    D                      

   (ripetere ogni nota più volte)
e|--------------------------------------------------10--------|
B|--10--0--7--0--5--0--3--0-----7--0--10--0--12--0------------|
G|------------------------------------------------------------|
D|------------------------------------------------------------|
A|------------------------------------------------------------|
E|------------------------------------------------------------|
    B                           G
        
         
e|--12b14..r12--10h12\-----|
B|-------------------------|
G|-------------------------|
D|-------------------------|
A|-------------------------|
E|-------------------------|
    A                 (A#)(B)(C)(C#)



RITORNELLO:

[D]                       B
MAGICO! Mi sentro proprio magico!
 
                G                   D       A
Dal fascino più stupido sò come finirà.. ah ah

D                         B
MAGICO! Mi sentro proprio magico!
 
                G                   D       A     [D]  (G)(A)(G)[D]
Dal fascino più stupido sò come finirà.. ah ah ah ah
VIDEO

Se il video non dovesse essere più disponibile scrivi a indytab@googlemail.com. Grazie!
COMMENTI
18/8/09 12:45, deX:
ma manca metà canzone -.-

22/8/09 14:21, Alberto (staff IndyTab):
Io ho questa versione da 1 minuto e 27 secondi

http://www.youtube.com/watch?v=LH0FK3NANR8

e non mi sembra che nella tab manchino dei pezzi. Non so se c'è un'altra versione della canzone.
Fammi sapere più dettagliatamente che in caso sistemiamo.
Ciao

COMMENTA QUESTA TABLATURA
Devi avere JavaScript attivato per poter commentare! (misura antispam)